  0
SECTION
  2
HEADER
  9
$ACADVER
  1
AC1009
  9
$DWGCODEPAGE
  3
ansi_1252
  9
$INSBASE
 10
0.0
 20
0.0
 30
0.0
  9
$EXTMIN
 10
-73.05522877198402
 20
-71.38077811793826
 30
0.0
  9
$EXTMAX
 10
72.74898176977013
 20
73.27500589191914
 30
0.0
  9
$LIMMIN
 10
0.0
 20
0.0
  9
$LIMMAX
 10
12.0
 20
9.0
  9
$ORTHOMODE
 70
     0
  9
$REGENMODE
 70
     1
  9
$FILLMODE
 70
     1
  9
$QTEXTMODE
 70
     0
  9
$MIRRTEXT
 70
     1
  9
$DRAGMODE
 70
     2
  9
$LTSCALE
 40
1.0
  9
$OSMODE
 70
    37
  9
$ATTMODE
 70
     1
  9
$TEXTSIZE
 40
0.2
  9
$TRACEWID
 40
0.05
  9
$TEXTSTYLE
  7
STANDARD
  9
$CLAYER
  8
0
  9
$CELTYPE
  6
BYLAYER
  9
$CECOLOR
 62
   256
  9
$DIMSCALE
 40
1.0
  9
$DIMASZ
 40
0.18
  9
$DIMEXO
 40
0.0625
  9
$DIMDLI
 40
0.38
  9
$DIMRND
 40
0.0
  9
$DIMDLE
 40
0.0
  9
$DIMEXE
 40
0.18
  9
$DIMTP
 40
0.0
  9
$DIMTM
 40
0.0
  9
$DIMTXT
 40
0.18
  9
$DIMCEN
 40
0.09
  9
$DIMTSZ
 40
0.0
  9
$DIMTOL
 70
     0
  9
$DIMLIM
 70
     0
  9
$DIMTIH
 70
     1
  9
$DIMTOH
 70
     1
  9
$DIMSE1
 70
     0
  9
$DIMSE2
 70
     0
  9
$DIMTAD
 70
     0
  9
$DIMZIN
 70
     0
  9
$DIMBLK
  1

  9
$DIMASO
 70
     1
  9
$DIMSHO
 70
     1
  9
$DIMPOST
  1

  9
$DIMAPOST
  1

  9
$DIMALT
 70
     0
  9
$DIMALTD
 70
     2
  9
$DIMALTF
 40
25.4
  9
$DIMLFAC
 40
1.0
  9
$DIMTOFL
 70
     0
  9
$DIMTVP
 40
0.0
  9
$DIMTIX
 70
     0
  9
$DIMSOXD
 70
     0
  9
$DIMSAH
 70
     0
  9
$DIMBLK1
  1

  9
$DIMBLK2
  1

  9
$DIMSTYLE
  2
STANDARD
  9
$DIMCLRD
 70
     0
  9
$DIMCLRE
 70
     0
  9
$DIMCLRT
 70
     0
  9
$DIMTFAC
 40
1.0
  9
$DIMGAP
 40
0.09
  9
$LUNITS
 70
     2
  9
$LUPREC
 70
     4
  9
$SKETCHINC
 40
0.1
  9
$FILLETRAD
 40
0.5
  9
$AUNITS
 70
     0
  9
$AUPREC
 70
     0
  9
$MENU
  1
.
  9
$ELEVATION
 40
0.0
  9
$PELEVATION
 40
0.0
  9
$THICKNESS
 40
0.0
  9
$LIMCHECK
 70
     0
  9
$CHAMFERA
 40
0.0
  9
$CHAMFERB
 40
0.0
  9
$SKPOLY
 70
     0
  9
$TDCREATE
 40
2454910.5
  9
$TDUPDATE
 40
2457548.629407824
  9
$TDINDWG
 40
0.0000000116
  9
$TDUSRTIMER
 40
0.0000000116
  9
$USRTIMER
 70
     1
  9
$ANGBASE
 50
0.0
  9
$ANGDIR
 70
     0
  9
$PDMODE
 70
     0
  9
$PDSIZE
 40
0.0
  9
$PLINEWID
 40
0.0
  9
$COORDS
 70
     1
  9
$SPLFRAME
 70
     0
  9
$SPLINETYPE
 70
     6
  9
$SPLINESEGS
 70
     8
  9
$ATTDIA
 70
     0
  9
$ATTREQ
 70
     1
  9
$HANDLING
 70
     1
  9
$HANDSEED
  5
9EE
  9
$SURFTAB1
 70
     6
  9
$SURFTAB2
 70
     6
  9
$SURFTYPE
 70
     6
  9
$SURFU
 70
     6
  9
$SURFV
 70
     6
  9
$UCSNAME
  2

  9
$UCSORG
 10
0.0
 20
0.0
 30
0.0
  9
$UCSXDIR
 10
1.0
 20
0.0
 30
0.0
  9
$UCSYDIR
 10
0.0
 20
1.0
 30
0.0
  9
$PUCSNAME
  2

  9
$PUCSORG
 10
0.0
 20
0.0
 30
0.0
  9
$PUCSXDIR
 10
1.0
 20
0.0
 30
0.0
  9
$PUCSYDIR
 10
0.0
 20
1.0
 30
0.0
  9
$USERI1
 70
     0
  9
$USERI2
 70
     0
  9
$USERI3
 70
     0
  9
$USERI4
 70
     0
  9
$USERI5
 70
     0
  9
$USERR1
 40
0.0
  9
$USERR2
 40
0.0
  9
$USERR3
 40
0.0
  9
$USERR4
 40
0.0
  9
$USERR5
 40
0.0
  9
$WORLDVIEW
 70
     1
  9
$SHADEDGE
 70
     3
  9
$SHADEDIF
 70
    70
  9
$TILEMODE
 70
     1
  9
$MAXACTVP
 70
    64
  9
$PLIMCHECK
 70
     0
  9
$PEXTMIN
 10
1.000000000000000E+20
 20
1.000000000000000E+20
 30
1.000000000000000E+20
  9
$PEXTMAX
 10
-1.000000000000000E+20
 20
-1.000000000000000E+20
 30
-1.000000000000000E+20
  9
$PLIMMIN
 10
0.0
 20
0.0
  9
$PLIMMAX
 10
12.0
 20
9.0
  9
$UNITMODE
 70
     0
  9
$VISRETAIN
 70
     1
  9
$PLINEGEN
 70
     0
  9
$PSLTSCALE
 70
     1
  0
ENDSEC
  0
SECTION
  2
TABLES
  0
TABLE
  2
VPORT
 70
     1
  0
VPORT
  2
*ACTIVE
 70
     0
 10
0.0
 20
0.0
 11
1.0
 21
1.0
 12
10.42990654205607
 22
4.5
 13
0.0
 23
0.0
 14
0.5
 24
0.5
 15
0.5
 25
0.5
 16
0.0
 26
0.0
 36
1.0
 17
0.0
 27
0.0
 37
0.0
 40
9.0
 41
1.972972972850329
 42
50.0
 43
0.0
 44
0.0
 50
0.0
 51
0.0
 71
     0
 72
   100
 73
     1
 74
     3
 75
     0
 76
     0
 77
     0
 78
     0
  0
ENDTAB
  0
TABLE
  2
LTYPE
 70
     2
  0
LTYPE
  2
CONTINUOUS
 70
     0
  3
Solid line
 72
    65
 73
     0
 40
0.0
  0
LTYPE
  2
CONTINUOUS2
 70
     0
  3
Solid Line
 72
    65
 73
     0
 40
0.0
  0
ENDTAB
  0
TABLE
  2
LAYER
 70
     2
  0
LAYER
  2
0
 70
     0
 62
     7
  6
CONTINUOUS
  0
LAYER
  2
LAYER_1
 70
     0
 62
    18
  6
CONTINUOUS
  0
ENDTAB
  0
TABLE
  2
STYLE
 70
     1
  0
STYLE
  2
STANDARD
 70
     0
 40
0.0
 41
1.0
 50
0.0
 71
     0
 42
0.2
  3
txt
  4

  0
ENDTAB
  0
TABLE
  2
VIEW
 70
     0
  0
ENDTAB
  0
TABLE
  2
UCS
 70
     0
  0
ENDTAB
  0
TABLE
  2
APPID
 70
     1
  0
APPID
  2
ACAD
 70
     0
  0
ENDTAB
  0
TABLE
  2
DIMSTYLE
 70
     1
  0
DIMSTYLE
  2
STANDARD
 70
     0
  3

  4

  5

  6

  7

 40
1.0
 41
0.18
 42
0.0625
 43
0.38
 44
0.18
 45
0.0
 46
0.0
 47
0.0
 48
0.0
140
0.18
141
0.09
142
0.0
143
25.4
144
1.0
145
0.0
146
1.0
147
0.09
 71
     0
 72
     0
 73
     1
 74
     1
 75
     0
 76
     0
 77
     0
 78
     0
170
     0
171
     2
172
     0
173
     0
174
     0
175
     0
176
     0
177
     0
178
     0
  0
ENDTAB
  0
ENDSEC
  0
SECTION
  2
BLOCKS
  0
BLOCK
  8
0
  2
$MODEL_SPACE
 70
     0
 10
0.0
 20
0.0
 30
0.0
  3
$MODEL_SPACE
  1

  0
ENDBLK
  5
21
  8
0
  0
BLOCK
 67
     1
  8
0
  2
$PAPER_SPACE
 70
     0
 10
0.0
 20
0.0
 30
0.0
  3
$PAPER_SPACE
  1

  0
ENDBLK
  5
1D
 67
     1
  8
0
  0
ENDSEC
  0
SECTION
  2
ENTITIES
  0
POLYLINE
  5
70
  8
LAYER_1
 66
     1
 10
0.0
 20
0.0
 30
0.0
 70
     1
  0
VERTEX
  5
82
  8
LAYER_1
 10
44.96250476688147
 20
-71.18563274698724
 30
0.0
  0
VERTEX
  5
83
  8
LAYER_1
 10
60.93750540167093
 20
-71.38077811793826
 30
0.0
  0
VERTEX
  5
84
  8
LAYER_1
 10
61.0875054076314
 20
-71.35391308724107
 30
0.0
  0
VERTEX
  5
85
  8
LAYER_1
 10
61.32012260437477
 20
-71.33463882955793
 30
0.0
  0
VERTEX
  5
86
  8
LAYER_1
 10
61.6687554307282
 20
-71.32602395525625
 30
0.0
  0
VERTEX
  5
87
  8
LAYER_1
 10
62.10000544786453
 20
-71.32499985396862
 30
0.0
  0
VERTEX
  5
88
  8
LAYER_1
 10
62.10000544786453
 20
-55.66749393638935
 30
0.0
  0
VERTEX
  5
89
  8
LAYER_1
 10
61.76250543445349
 20
-55.57704743069514
 30
0.0
  0
VERTEX
  5
8A
  8
LAYER_1
 10
58.61250530928373
 20
-55.57497411507907
 30
0.0
  0
VERTEX
  5
8B
  8
LAYER_1
 10
50.58750499039888
 20
-55.7277295354407
 30
0.0
  0
VERTEX
  5
8C
  8
LAYER_1
 10
39.93750456720591
 20
-55.87280938714229
 30
0.0
  0
VERTEX
  5
8D
  8
LAYER_1
 10
32.58750427514315
 20
-56.02304548184318
 30
0.0
  0
VERTEX
  5
8E
  8
LAYER_1
 10
31.35000422596931
 20
-56.09879217647875
 30
0.0
  0
VERTEX
  5
8F
  8
LAYER_1
 10
30.14389983361259
 20
-56.18740904937206
 30
0.0
  0
VERTEX
  5
90
  8
LAYER_1
 10
29.54598030408459
 20
-56.24260602376926
 30
0.0
  0
VERTEX
  5
91
  8
LAYER_1
 10
28.94955904273304
 20
-56.30527646161442
 30
0.0
  0
VERTEX
  5
92
  8
LAYER_1
 10
28.3531934173651
 20
-56.37558119151823
 30
0.0
  0
VERTEX
  5
93
  8
LAYER_1
 10
27.75544079578792
 20
-56.45368104209138
 30
0.0
  0
VERTEX
  5
94
  8
LAYER_1
 10
26.55000403523445
 20
-56.63390941968849
 30
0.0
  0
VERTEX
  5
95
  8
LAYER_1
 10
26.06250401586294
 20
-56.71278345966108
 30
0.0
  0
VERTEX
  5
96
  8
LAYER_1
 10
23.43750391155481
 20
-57.23261245044873
 30
0.0
  0
VERTEX
  5
97
  8
LAYER_1
 10
22.0125038549304
 20
-57.59890684625152
 30
0.0
  0
VERTEX
  5
98
  8
LAYER_1
 10
16.16250362247229
 20
-59.03220132601988
 30
0.0
  0
VERTEX
  5
99
  8
LAYER_1
 10
14.81250356882811
 20
-59.3623786530263
 30
0.0
  0
VERTEX
  5
9A
  8
LAYER_1
 10
12.48750347644091
 20
-59.92699060358294
 30
0.0
  0
VERTEX
  5
9B
  8
LAYER_1
 10
11.51250343769789
 20
-60.16142522713315
 30
0.0
  0
VERTEX
  5
9C
  8
LAYER_1
 10
6.937503255903721
 20
-61.27403995878804
 30
0.0
  0
VERTEX
  5
9D
  8
LAYER_1
 10
6.675003245472908
 20
-61.34542141292378
 30
0.0
  0
VERTEX
  5
9E
  8
LAYER_1
 10
6.356160258230728
 20
-61.42449553860276
 30
0.0
  0
VERTEX
  5
9F
  8
LAYER_1
 10
6.22448800916794
 20
-61.44731568106505
 30
0.0
  0
VERTEX
  5
A0
  8
LAYER_1
 10
6.096932966160164
 20
-61.45983585749979
 30
0.0
  0
VERTEX
  5
A1
  8
LAYER_1
 10
5.96270841146951
 20
-61.46268955357494
 30
0.0
  0
VERTEX
  5
A2
  8
LAYER_1
 10
5.811027627358087
 20
-61.45651025495842
 30
0.0
  0
VERTEX
  5
A3
  8
LAYER_1
 10
5.412150499921367
 20
-61.41958661632223
 30
0.0
  0
VERTEX
  5
A4
  8
LAYER_1
 10
4.762503169476986
 20
-61.34976342452188
 30
0.0
  0
VERTEX
  5
A5
  8
LAYER_1
 10
-2.287497110664845
 20
-60.66898261258636
 30
0.0
  0
VERTEX
  5
A6
  8
LAYER_1
 10
-5.962497256696224
 20
-60.38079810052108
 30
0.0
  0
VERTEX
  5
A7
  8
LAYER_1
 10
-10.83749745041132
 20
-60.0693675654742
 30
0.0
  0
VERTEX
  5
A8
  8
LAYER_1
 10
-13.23749754577875
 20
-59.92553586088848
 30
0.0
  0
VERTEX
  5
A9
  8
LAYER_1
 10
-18.9374977722764
 20
-59.69619201522033
 30
0.0
  0
VERTEX
  5
AA
  8
LAYER_1
 10
-27.16670915164576
 20
-59.60125395433691
 30
0.0
  0
VERTEX
  5
AB
  8
LAYER_1
 10
-27.36460363332444
 20
-59.43839121721479
 30
0.0
  0
VERTEX
  5
AC
  8
LAYER_1
 10
-27.54746492009286
 20
-59.30755209196374
 30
0.0
  0
VERTEX
  5
AD
  8
LAYER_1
 10
-27.63663293975996
 20
-59.25544064630768
 30
0.0
  0
VERTEX
  5
AE
  8
LAYER_1
 10
-27.70921576294477
 20
-59.22168229402101
 30
0.0
  0
VERTEX
  5
AF
  8
LAYER_1
 10
-27.85593341088643
 20
-59.16783610794935
 30
0.0
  0
VERTEX
  5
B0
  8
LAYER_1
 10
-30.44671587172325
 20
-59.06148665229178
 30
0.0
  0
VERTEX
  5
B1
  8
LAYER_1
 10
-33.17815372853113
 20
-58.96359147893011
 30
0.0
  0
VERTEX
  5
B2
  8
LAYER_1
 10
-36.10710767329837
 20
-58.87756827645202
 30
0.0
  0
VERTEX
  5
B3
  8
LAYER_1
 10
-39.17671701403667
 20
-58.79999935626984
 30
0.0
  0
VERTEX
  5
B4
  8
LAYER_1
 10
-48.26249893754721
 20
-58.80082610083483
 30
0.0
  0
VERTEX
  5
B5
  8
LAYER_1
 10
-53.81249915808439
 20
-58.95008459684068
 30
0.0
  0
VERTEX
  5
B6
  8
LAYER_1
 10
-55.76249923557043
 20
-59.02546436592002
 30
0.0
  0
VERTEX
  5
B7
  8
LAYER_1
 10
-57.78950095851253
 20
-59.11349618533535
 30
0.0
  0
VERTEX
  5
B8
  8
LAYER_1
 10
-59.92463265166953
 20
-59.21929471373312
 30
0.0
  0
VERTEX
  5
B9
  8
LAYER_1
 10
-62.1367659902826
 20
-59.33774529246688
 30
0.0
  0
VERTEX
  5
BA
  8
LAYER_1
 10
-62.21213274256662
 20
-59.2010807918367
 30
0.0
  0
VERTEX
  5
BB
  8
LAYER_1
 10
-62.26289239140088
 20
-59.1257485163449
 30
0.0
  0
VERTEX
  5
BC
  8
LAYER_1
 10
-62.34538579028224
 20
-59.02166274919693
 30
0.0
  0
VERTEX
  5
BD
  8
LAYER_1
 10
-62.55992597626349
 20
-58.78220781777772
 30
0.0
  0
VERTEX
  5
BE
  8
LAYER_1
 10
-62.83235245767636
 20
-58.49999934434891
 30
0.0
  0
VERTEX
  5
BF
  8
LAYER_1
 10
-66.46434408591355
 20
-58.49999934434891
 30
0.0
  0
VERTEX
  5
C0
  8
LAYER_1
 10
-66.66724804890735
 20
-58.64447970980839
 30
0.0
  0
VERTEX
  5
C1
  8
LAYER_1
 10
-66.74656137904645
 20
-58.7070321061505
 30
0.0
  0
VERTEX
  5
C2
  8
LAYER_1
 10
-66.8218941734672
 20
-58.7792802366654
 30
0.0
  0
VERTEX
  5
C3
  8
LAYER_1
 10
-66.89352633285405
 20
-58.86198962510509
 30
0.0
  0
VERTEX
  5
C4
  8
LAYER_1
 10
-66.96173775789146
 20
-58.95592579522154
 30
0.0
  0
VERTEX
  5
C5
  8
LAYER_1
 10
-67.02680834926389
 20
-59.06185427076673
 30
0.0
  0
VERTEX
  5
C6
  8
LAYER_1
 10
-67.08901800765578
 20
-59.18054057549264
 30
0.0
  0
VERTEX
  5
C7
  8
LAYER_1
 10
-67.14864663375161
 20
-59.31275023315126
 30
0.0
  0
VERTEX
  5
C8
  8
LAYER_1
 10
-67.20597412823582
 20
-59.45924876749457
 30
0.0
  0
VERTEX
  5
C9
  8
LAYER_1
 10
-67.31484532510726
 20
-59.79817456124316
 30
0.0
  0
VERTEX
  5
CA
  8
LAYER_1
 10
-67.4178708037457
 20
-60.20344214675426
 30
0.0
  0
VERTEX
  5
CB
  8
LAYER_1
 10
-67.51728976962683
 20
-60.68117571404372
 30
0.0
  0
VERTEX
  5
CC
  8
LAYER_1
 10
-67.6153414282263
 20
-61.23749945312738
 30
0.0
  0
VERTEX
  5
CD
  8
LAYER_1
 10
-67.73846457637298
 20
-61.98749948292971
 30
0.0
  0
VERTEX
  5
CE
  8
LAYER_1
 10
-67.7384938691566
 20
-63.48749954253435
 30
0.0
  0
VERTEX
  5
CF
  8
LAYER_1
 10
-67.73449949206113
 20
-63.92578773808918
 30
0.0
  0
VERTEX
  5
D0
  8
LAYER_1
 10
-67.72259836970211
 20
-64.34835360705142
 30
0.0
  0
VERTEX
  5
D1
  8
LAYER_1
 10
-67.70293963864148
 20
-64.75444228700132
 30
0.0
  0
VERTEX
  5
D2
  8
LAYER_1
 10
-67.67567243544117
 20
-65.14329891551924
 30
0.0
  0
VERTEX
  5
D3
  8
LAYER_1
 10
-67.64094589666314
 20
-65.51416863018542
 30
0.0
  0
VERTEX
  5
D4
  8
LAYER_1
 10
-67.5989091588693
 20
-65.86629656858017
 30
0.0
  0
VERTEX
  5
D5
  8
LAYER_1
 10
-67.54971135862165
 20
-66.19892786828377
 30
0.0
  0
VERTEX
  5
D6
  8
LAYER_1
 10
-67.49350163248208
 20
-66.51130766687655
 30
0.0
  0
VERTEX
  5
D7
  8
LAYER_1
 10
-67.43042911701255
 20
-66.80268110193876
 30
0.0
  0
VERTEX
  5
D8
  8
LAYER_1
 10
-67.36064294877502
 20
-67.07229331105071
 30
0.0
  0
VERTEX
  5
D9
  8
LAYER_1
 10
-67.28429226433141
 20
-67.3193894317927
 30
0.0
  0
VERTEX
  5
DA
  8
LAYER_1
 10
-67.20152620024368
 20
-67.54321460174499
 30
0.0
  0
VERTEX
  5
DB
  8
LAYER_1
 10
-67.11249389307375
 20
-67.74301395848791
 30
0.0
  0
VERTEX
  5
DC
  8
LAYER_1
 10
-67.01734447938358
 20
-67.91803263960173
 30
0.0
  0
VERTEX
  5
DD
  8
LAYER_1
 10
-66.91622709573511
 20
-68.06751578266675
 30
0.0
  0
VERTEX
  5
DE
  8
LAYER_1
 10
-66.8092908786903
 20
-68.19070852526325
 30
0.0
  0
VERTEX
  5
DF
  8
LAYER_1
 10
-66.52499966323376
 20
-68.4749997407198
 30
0.0
  0
VERTEX
  5
E0
  8
LAYER_1
 10
-62.9106433281006
 20
-68.4749997407198
 30
0.0
  0
VERTEX
  5
E1
  8
LAYER_1
 10
-62.69989059346489
 20
-68.35050503746271
 30
0.0
  0
VERTEX
  5
E2
  8
LAYER_1
 10
-62.60528685818055
 20
-68.27944065922416
 30
0.0
  0
VERTEX
  5
E3
  8
LAYER_1
 10
-62.50349773784932
 20
-68.17797909255421
 30
0.0
  0
VERTEX
  5
E4
  8
LAYER_1
 10
-62.4067498516422
 20
-68.05965549424069
 30
0.0
  0
VERTEX
  5
E5
  8
LAYER_1
 10
-62.32726981873016
 20
-67.93800502107143
 30
0.0
  0
VERTEX
  5
E6
  8
LAYER_1
 10
-62.22937207632784
 20
-67.77906707444836
 30
0.0
  0
VERTEX
  5
E7
  8
LAYER_1
 10
-62.18504709307975
 20
-67.72820505578274
 30
0.0
  0
VERTEX
  5
E8
  8
LAYER_1
 10
-62.13728102059968
 20
-67.692757389652
 30
0.0
  0
VERTEX
  5
E9
  8
LAYER_1
 10
-62.08118109798714
 20
-67.6699813631344
 30
0.0
  0
VERTEX
  5
EA
  8
LAYER_1
 10
-62.01185456434162
 20
-67.65713426330814
 30
0.0
  0
VERTEX
  5
EB
  8
LAYER_1
 10
-61.81395062034962
 20
-67.65025599204266
 30
0.0
  0
VERTEX
  5
EC
  8
LAYER_1
 10
-61.32339448018341
 20
-67.67195380084192
 30
0.0
  0
VERTEX
  5
ED
  8
LAYER_1
 10
-60.63749942928553
 20
-67.7237609847432
 30
0.0
  0
VERTEX
  5
EE
  8
LAYER_1
 10
-59.81249939650297
 20
-67.79700969333831
 30
0.0
  0
VERTEX
  5
EF
  8
LAYER_1
 10
-54.63749919086695
 20
-68.02108401822758
 30
0.0
  0
VERTEX
  5
F0
  8
LAYER_1
 10
-48.11249893158674
 20
-68.19390348568935
 30
0.0
  0
VERTEX
  5
F1
  8
LAYER_1
 10
-34.91249840706587
 20
-68.11075287957802
 30
0.0
  0
VERTEX
  5
F2
  8
LAYER_1
 10
-30.71249824017286
 20
-67.9480242860455
 30
0.0
  0
VERTEX
  5
F3
  8
LAYER_1
 10
-27.72260162814714
 20
-67.80956395641445
 30
0.0
  0
VERTEX
  5
F4
  8
LAYER_1
 10
-27.07061265083495
 20
-67.34999969601631
 30
0.0
  0
VERTEX
  5
F5
  8
LAYER_1
 10
-24.31655526370974
 20
-67.34923003602715
 30
0.0
  0
VERTEX
  5
F6
  8
LAYER_1
 10
-23.05191344235479
 20
-67.34318518441253
 30
0.0
  0
VERTEX
  5
F7
  8
LAYER_1
 10
-21.64447095516294
 20
-67.3272953878276
 30
0.0
  0
VERTEX
  5
F8
  8
LAYER_1
 10
-20.26580625087627
 20
-67.30397532942415
 30
0.0
  0
VERTEX
  5
F9
  8
LAYER_1
 10
-19.08749777823687
 20
-67.27563969235393
 30
0.0
  0
VERTEX
  5
FA
  8
LAYER_1
 10
-16.6124976798892
 20
-67.20281900866989
 30
0.0
  0
VERTEX
  5
FB
  8
LAYER_1
 10
-13.68749756366014
 20
-67.04760875539714
 30
0.0
  0
VERTEX
  5
FC
  8
LAYER_1
 10
-11.47499747574329
 20
-66.93468396226636
 30
0.0
  0
VERTEX
  5
FD
  8
LAYER_1
 10
-9.405700518516824
 20
-66.82144226923623
 30
0.0
  0
VERTEX
  5
FE
  8
LAYER_1
 10
-7.537497319281101
 20
-66.70775556783678
 30
0.0
  0
VERTEX
  5
FF
  8
LAYER_1
 10
-5.81249725073576
 20
-66.59375196653798
 30
0.0
  0
VERTEX
  5
100
  8
LAYER_1
 10
-4.462497197091579
 20
-66.4551187681495
 30
0.0
  0
VERTEX
  5
101
  8
LAYER_1
 10
-2.549997121095657
 20
-66.2992949957934
 30
0.0
  0
VERTEX
  5
102
  8
LAYER_1
 10
-1.118326461733111
 20
-66.17840693860613
 30
0.0
  0
VERTEX
  5
103
  8
LAYER_1
 10
0.5184201076584909
 20
-66.03181402316858
 30
0.0
  0
VERTEX
  5
104
  8
LAYER_1
 10
4.7100985551821
 20
-65.63374060235243
 30
0.0
  0
VERTEX
  5
105
  8
LAYER_1
 10
6.157694000491858
 20
-65.49296663900662
 30
0.0
  0
VERTEX
  5
106
  8
LAYER_1
 10
6.73509863564837
 20
-65.62938382417911
 30
0.0
  0
VERTEX
  5
107
  8
LAYER_1
 10
7.612503282725811
 20
-65.84365643572747
 30
0.0
  0
VERTEX
  5
108
  8
LAYER_1
 10
7.91250329464674
 20
-65.92151186210334
 30
0.0
  0
VERTEX
  5
109
  8
LAYER_1
 10
13.68750352412462
 20
-67.34109937060339
 30
0.0
  0
VERTEX
  5
10A
  8
LAYER_1
 10
14.92500357329845
 20
-67.64163588895389
 30
0.0
  0
VERTEX
  5
10B
  8
LAYER_1
 10
17.56875367835164
 20
-68.28358607699232
 30
0.0
  0
VERTEX
  5
10C
  8
LAYER_1
 10
20.34375378862023
 20
-68.95820405474952
 30
0.0
  0
VERTEX
  5
10D
  8
LAYER_1
 10
22.55384738952247
 20
-69.49314291060178
 30
0.0
  0
VERTEX
  5
10E
  8
LAYER_1
 10
23.95662333350968
 20
-69.82006553761926
 30
0.0
  0
VERTEX
  5
10F
  8
LAYER_1
 10
24.94515206037273
 20
-70.02667046897842
 30
0.0
  0
VERTEX
  5
110
  8
LAYER_1
 10
25.91250400990248
 20
-70.20065623785578
 30
0.0
  0
VERTEX
  5
111
  8
LAYER_1
 10
27.15000405907631
 20
-70.42079996401189
 30
0.0
  0
VERTEX
  5
112
  8
LAYER_1
 10
27.56250407546759
 20
-70.49918804152698
 30
0.0
  0
VERTEX
  5
113
  8
LAYER_1
 10
31.01250421255827
 20
-70.88595153379097
 30
0.0
  0
VERTEX
  5
114
  8
LAYER_1
 10
35.9625044092536
 20
-71.01477663921182
 30
0.0
  0
SEQEND
  5
9E3
  8
LAYER_1
  0
POLYLINE
  5
71
  8
LAYER_1
 66
     1
 10
0.0
 20
0.0
 30
0.0
 70
     1
  0
VERTEX
  5
115
  8
LAYER_1
 10
-71.09999984502792
 20
-52.22568799429257
 30
0.0
  0
VERTEX
  5
116
  8
LAYER_1
 10
-70.85175170084662
 20
-52.49999910593033
 30
0.0
  0
VERTEX
  5
117
  8
LAYER_1
 10
3.787503130733967
 20
-52.4977021896615
 30
0.0
  0
VERTEX
  5
118
  8
LAYER_1
 10
3.991834247808413
 20
-52.36824435413604
 30
0.0
  0
VERTEX
  5
119
  8
LAYER_1
 10
3.992677025909529
 20
-13.2892707723302
 30
0.0
  0
VERTEX
  5
11A
  8
LAYER_1
 10
3.906695431831366
 20
-13.15014963070482
 30
0.0
  0
VERTEX
  5
11B
  8
LAYER_1
 10
3.153349253715533
 20
-13.06257358302638
 30
0.0
  0
VERTEX
  5
11C
  8
LAYER_1
 10
1.668753046542406
 20
-12.89869385150865
 30
0.0
  0
VERTEX
  5
11D
  8
LAYER_1
 10
0.9375030174851418
 20
-12.82239016766937
 30
0.0
  0
VERTEX
  5
11E
  8
LAYER_1
 10
-3.637497164309025
 20
-12.38593127804451
 30
0.0
  0
VERTEX
  5
11F
  8
LAYER_1
 10
-4.64999720454216
 20
-12.30286286978711
 30
0.0
  0
VERTEX
  5
120
  8
LAYER_1
 10
-8.287497349083424
 20
-11.99774787307352
 30
0.0
  0
VERTEX
  5
121
  8
LAYER_1
 10
-9.244684887118638
 20
-11.92320906118637
 30
0.0
  0
VERTEX
  5
122
  8
LAYER_1
 10
-10.38749743252993
 20
-11.84800330453131
 30
0.0
  0
VERTEX
  5
123
  8
LAYER_1
 10
-12.74999752640724
 20
-11.69915164219123
 30
0.0
  0
VERTEX
  5
124
  8
LAYER_1
 10
-15.14999762177467
 20
-11.55182171044259
 30
0.0
  0
VERTEX
  5
125
  8
LAYER_1
 10
-16.46249767392874
 20
-11.47766273886243
 30
0.0
  0
VERTEX
  5
126
  8
LAYER_1
 10
-20.66249784082174
 20
-11.32269727296158
 30
0.0
  0
VERTEX
  5
127
  8
LAYER_1
 10
-23.66249796003103
 20
-11.17701713336394
 30
0.0
  0
VERTEX
  5
128
  8
LAYER_1
 10
-29.1749981790781
 20
-11.08940752660084
 30
0.0
  0
VERTEX
  5
129
  8
LAYER_1
 10
-32.24433696782145
 20
-11.04791874735307
 30
0.0
  0
VERTEX
  5
12A
  8
LAYER_1
 10
-33.50012050050728
 20
-11.03938678903553
 30
0.0
  0
VERTEX
  5
12B
  8
LAYER_1
 10
-34.67447409430635
 20
-11.03939013379477
 30
0.0
  0
VERTEX
  5
12C
  8
LAYER_1
 10
-35.84576822589651
 20
-11.0482240432852
 30
0.0
  0
VERTEX
  5
12D
  8
LAYER_1
 10
-37.0923733719556
 20
-11.06618377916124
 30
0.0
  0
VERTEX
  5
12E
  8
LAYER_1
 10
-40.12499861419201
 20
-11.13066177668779
 30
0.0
  0
VERTEX
  5
12F
  8
LAYER_1
 10
-45.56249883025885
 20
-11.25952563353785
 30
0.0
  0
VERTEX
  5
130
  8
LAYER_1
 10
-50.43749902397394
 20
-11.4667518323206
 30
0.0
  0
VERTEX
  5
131
  8
LAYER_1
 10
-51.74999907612801
 20
-11.54408089510082
 30
0.0
  0
VERTEX
  5
132
  8
LAYER_1
 10
-54.99475183960454
 20
-11.73998201021468
 30
0.0
  0
VERTEX
  5
133
  8
LAYER_1
 10
-57.14999929070473
 20
-11.88647324550645
 30
0.0
  0
VERTEX
  5
134
  8
LAYER_1
 10
-58.68749935179949
 20
-11.99768579895346
 30
0.0
  0
VERTEX
  5
135
  8
LAYER_1
 10
-59.58749938756227
 20
-12.07183667434906
 30
0.0
  0
VERTEX
  5
136
  8
LAYER_1
 10
-61.38749945908785
 20
-12.22215630130291
 30
0.0
  0
VERTEX
  5
137
  8
LAYER_1
 10
-63.33749953657389
 20
-12.37453211800682
 30
0.0
  0
VERTEX
  5
138
  8
LAYER_1
 10
-64.27183551120106
 20
-12.45027567605604
 30
0.0
  0
VERTEX
  5
139
  8
LAYER_1
 10
-65.04374960437417
 20
-12.52536835179963
 30
0.0
  0
VERTEX
  5
13A
  8
LAYER_1
 10
-66.70021186093314
 20
-12.70844521769003
 30
0.0
  0
VERTEX
  5
13B
  8
LAYER_1
 10
-67.61249970644712
 20
-12.78958847310039
 30
0.0
  0
VERTEX
  5
13C
  8
LAYER_1
 10
-68.19046847941354
 20
-12.84025607007699
 30
0.0
  0
VERTEX
  5
13D
  8
LAYER_1
 10
-68.73749975115061
 20
-12.90059994349282
 30
0.0
  0
VERTEX
  5
13E
  8
LAYER_1
 10
-70.08749980479479
 20
-13.06181785231314
 30
0.0
  0
VERTEX
  5
13F
  8
LAYER_1
 10
-70.91249983757734
 20
-13.15580120601092
 30
0.0
  0
VERTEX
  5
140
  8
LAYER_1
 10
-71.09999984502792
 20
-13.33928326410935
 30
0.0
  0
VERTEX
  5
141
  8
LAYER_1
 10
-71.09999984502792
 20
-17.7661451765748
 30
0.0
  0
VERTEX
  5
142
  8
LAYER_1
 10
-70.94999983906746
 20
-17.85885027857104
 30
0.0
  0
VERTEX
  5
143
  8
LAYER_1
 10
-70.94999983906746
 20
-47.76614636866768
 30
0.0
  0
VERTEX
  5
144
  8
LAYER_1
 10
-71.09999984502792
 20
-47.85885147066394
 30
0.0
  0
SEQEND
  5
9E4
  8
LAYER_1
  0
POLYLINE
  5
72
  8
LAYER_1
 66
     1
 10
0.0
 20
0.0
 30
0.0
 70
     1
  0
VERTEX
  5
145
  8
LAYER_1
 10
15.06869150672463
 20
-49.76868692511427
 30
0.0
  0
VERTEX
  5
146
  8
LAYER_1
 10
15.17674327125049
 20
-49.87673868964012
 30
0.0
  0
VERTEX
  5
147
  8
LAYER_1
 10
65.36250557750463
 20
-49.80703958478831
 30
0.0
  0
VERTEX
  5
148
  8
LAYER_1
 10
68.04709125367052
 20
-49.68749899417162
 30
0.0
  0
VERTEX
  5
149
  8
LAYER_1
 10
68.14855391034266
 20
-49.33901362083851
 30
0.0
  0
VERTEX
  5
14A
  8
LAYER_1
 10
68.2080091914197
 20
-49.17840192072565
 30
0.0
  0
VERTEX
  5
14B
  8
LAYER_1
 10
68.28894262547243
 20
-49.02571468379633
 30
0.0
  0
VERTEX
  5
14C
  8
LAYER_1
 10
68.38680591217744
 20
-48.88833085043178
 30
0.0
  0
VERTEX
  5
14D
  8
LAYER_1
 10
68.49705075121128
 20
-48.77362936101325
 30
0.0
  0
VERTEX
  5
14E
  8
LAYER_1
 10
68.74408493540781
 20
-48.55673047452108
 30
0.0
  0
VERTEX
  5
14F
  8
LAYER_1
 10
71.29817185947118
 20
-47.25637830600702
 30
0.0
  0
VERTEX
  5
150
  8
LAYER_1
 10
71.50790561939499
 20
-47.0469385934649
 30
0.0
  0
VERTEX
  5
151
  8
LAYER_1
 10
71.5943904294889
 20
-46.9523718024462
 30
0.0
  0
VERTEX
  5
152
  8
LAYER_1
 10
71.67482682479098
 20
-46.84971264410491
 30
0.0
  0
VERTEX
  5
153
  8
LAYER_1
 10
71.74023328073754
 20
-46.75134129624246
 30
0.0
  0
VERTEX
  5
154
  8
LAYER_1
 10
71.78162827276489
 20
-46.66963793666024
 30
0.0
  0
VERTEX
  5
155
  8
LAYER_1
 10
71.84561716621096
 20
-46.50177699239768
 30
0.0
  0
VERTEX
  5
156
  8
LAYER_1
 10
72.28628193308217
 20
-43.76201896676122
 30
0.0
  0
VERTEX
  5
157
  8
LAYER_1
 10
72.24915388519932
 20
-43.56779612936735
 30
0.0
  0
VERTEX
  5
158
  8
LAYER_1
 10
72.23927089325367
 20
-43.46583999108916
 30
0.0
  0
VERTEX
  5
159
  8
LAYER_1
 10
72.24583125176086
 20
-43.42649941973298
 30
0.0
  0
VERTEX
  5
15A
  8
LAYER_1
 10
72.26148360664581
 20
-43.39273296481969
 30
0.0
  0
VERTEX
  5
15B
  8
LAYER_1
 10
72.28729602795185
 20
-43.36290246479
 30
0.0
  0
VERTEX
  5
15C
  8
LAYER_1
 10
72.32433658572228
 20
-43.3353697580846
 30
0.0
  0
VERTEX
  5
15D
  8
LAYER_1
 10
72.4363743908296
 20
-43.28064507840957
 30
0.0
  0
VERTEX
  5
15E
  8
LAYER_1
 10
72.52664612000041
 20
-43.23684572315126
 30
0.0
  0
VERTEX
  5
15F
  8
LAYER_1
 10
72.5980179176079
 20
-43.18424503223021
 30
0.0
  0
VERTEX
  5
160
  8
LAYER_1
 10
72.65262606274757
 20
-43.11623595661652
 30
0.0
  0
VERTEX
  5
161
  8
LAYER_1
 10
72.69260683451488
 20
-43.02621144728028
 30
0.0
  0
VERTEX
  5
162
  8
LAYER_1
 10
72.7200965120053
 20
-42.90756445519155
 30
0.0
  0
VERTEX
  5
163
  8
LAYER_1
 10
72.73723137431432
 20
-42.75368793132039
 30
0.0
  0
VERTEX
  5
164
  8
LAYER_1
 10
72.74898176977013
 20
-42.31381809211118
 30
0.0
  0
VERTEX
  5
165
  8
LAYER_1
 10
72.74548412381608
 20
-42.11960336097141
 30
0.0
  0
VERTEX
  5
166
  8
LAYER_1
 10
72.73427548040667
 20
-41.95033698465572
 30
0.0
  0
VERTEX
  5
167
  8
LAYER_1
 10
72.7154390784469
 20
-41.80631082905283
 30
0.0
  0
VERTEX
  5
168
  8
LAYER_1
 10
72.68905815684192
 20
-41.68781676005148
 30
0.0
  0
VERTEX
  5
169
  8
LAYER_1
 10
72.65521595449677
 20
-41.5951466435404
 30
0.0
  0
VERTEX
  5
16A
  8
LAYER_1
 10
72.61399571031654
 20
-41.52859234540833
 30
0.0
  0
VERTEX
  5
16B
  8
LAYER_1
 10
72.56548066320633
 20
-41.48844573154401
 30
0.0
  0
VERTEX
  5
16C
  8
LAYER_1
 10
72.5097540520712
 20
-41.47499866783619
 30
0.0
  0
VERTEX
  5
16D
  8
LAYER_1
 10
72.42477980302826
 20
-41.47499866783619
 30
0.0
  0
VERTEX
  5
16E
  8
LAYER_1
 10
71.10614277818331
 20
-41.99978997822555
 30
0.0
  0
VERTEX
  5
16F
  8
LAYER_1
 10
70.33727737870493
 20
-42.3107181086255
 30
0.0
  0
VERTEX
  5
170
  8
LAYER_1
 10
70.08671639252199
 20
-42.42211914220515
 30
0.0
  0
VERTEX
  5
171
  8
LAYER_1
 10
69.89803535380733
 20
-42.51993802218988
 30
0.0
  0
VERTEX
  5
172
  8
LAYER_1
 10
69.75070836638405
 20
-42.61601964919363
 30
0.0
  0
VERTEX
  5
173
  8
LAYER_1
 10
69.62420953407522
 20
-42.72220892383038
 30
0.0
  0
VERTEX
  5
174
  8
LAYER_1
 10
69.3515927500932
 20
-43.01229001845869
 30
0.0
  0
VERTEX
  5
175
  8
LAYER_1
 10
69.0938157015355
 20
-43.29338742854848
 30
0.0
  0
VERTEX
  5
176
  8
LAYER_1
 10
69.0012105320815
 20
-43.38003423485634
 30
0.0
  0
VERTEX
  5
177
  8
LAYER_1
 10
68.91985116445363
 20
-43.43827142431542
 30
0.0
  0
VERTEX
  5
178
  8
LAYER_1
 10
68.84003027260913
 20
-43.47374273365764
 30
0.0
  0
VERTEX
  5
179
  8
LAYER_1
 10
68.75204053050516
 20
-43.49209189961493
 30
0.0
  0
VERTEX
  5
17A
  8
LAYER_1
 10
68.51272519134767
 20
-43.49999874830246
 30
0.0
  0
VERTEX
  5
17B
  8
LAYER_1
 10
68.28299649682705
 20
-43.48976982066651
 30
0.0
  0
VERTEX
  5
17C
  8
LAYER_1
 10
68.07545736373059
 20
-43.45858220464324
 30
0.0
  0
VERTEX
  5
17D
  8
LAYER_1
 10
67.88874104132367
 20
-43.40568465055953
 30
0.0
  0
VERTEX
  5
17E
  8
LAYER_1
 10
67.7214807788717
 20
-43.33032590874224
 30
0.0
  0
VERTEX
  5
17F
  8
LAYER_1
 10
67.5723098256401
 20
-43.23175472951824
 30
0.0
  0
VERTEX
  5
180
  8
LAYER_1
 10
67.43986143089427
 20
-43.10921986321439
 30
0.0
  0
VERTEX
  5
181
  8
LAYER_1
 10
67.32276884389964
 20
-42.96197006015758
 30
0.0
  0
VERTEX
  5
182
  8
LAYER_1
 10
67.21966531392158
 20
-42.78925407067466
 30
0.0
  0
VERTEX
  5
183
  8
LAYER_1
 10
67.17343507175586
 20
-42.67228096299265
 30
0.0
  0
VERTEX
  5
184
  8
LAYER_1
 10
67.13922640948805
 20
-42.52776481499876
 30
0.0
  0
VERTEX
  5
185
  8
LAYER_1
 10
67.1172055453946
 20
-42.36424210582713
 30
0.0
  0
VERTEX
  5
186
  8
LAYER_1
 10
67.10753869775195
 20
-42.19024931461192
 30
0.0
  0
VERTEX
  5
187
  8
LAYER_1
 10
67.11039208483658
 20
-42.01432292048727
 30
0.0
  0
VERTEX
  5
188
  8
LAYER_1
 10
67.12593192492491
 20
-41.84499940258735
 30
0.0
  0
VERTEX
  5
189
  8
LAYER_1
 10
67.15432443629345
 20
-41.69081524004631
 30
0.0
  0
VERTEX
  5
18A
  8
LAYER_1
 10
67.19573583721859
 20
-41.56030691199827
 30
0.0
  0
VERTEX
  5
18B
  8
LAYER_1
 10
67.28789459917715
 20
-41.33781597898638
 30
0.0
  0
VERTEX
  5
18C
  8
LAYER_1
 10
67.93770015241589
 20
-40.75941224484263
 30
0.0
  0
VERTEX
  5
18D
  8
LAYER_1
 10
68.56896295289252
 20
-40.18570731489667
 30
0.0
  0
VERTEX
  5
18E
  8
LAYER_1
 10
69.1741869941713
 20
-39.61860070573911
 30
0.0
  0
VERTEX
  5
18F
  8
LAYER_1
 10
69.76086828268794
 20
-39.05619290077934
 30
0.0
  0
VERTEX
  5
190
  8
LAYER_1
 10
69.83043702024833
 20
-38.87321325439137
 30
0.0
  0
VERTEX
  5
191
  8
LAYER_1
 10
69.85745826231641
 20
-38.77148160917098
 30
0.0
  0
VERTEX
  5
192
  8
LAYER_1
 10
69.87960346727311
 20
-38.62975403900103
 30
0.0
  0
VERTEX
  5
193
  8
LAYER_1
 10
69.894586165978
 20
-38.46679427971323
 30
0.0
  0
VERTEX
  5
194
  8
LAYER_1
 10
69.90011988929058
 20
-38.30136606713928
 30
0.0
  0
VERTEX
  5
195
  8
LAYER_1
 10
69.90023402077244
 20
-37.91249852627516
 30
0.0
  0
VERTEX
  5
196
  8
LAYER_1
 10
69.66140362663657
 20
-35.66249843686819
 30
0.0
  0
VERTEX
  5
197
  8
LAYER_1
 10
69.56396569845688
 20
-35.46128517460893
 30
0.0
  0
VERTEX
  5
198
  8
LAYER_1
 10
69.51660581214176
 20
-35.34627509806765
 30
0.0
  0
VERTEX
  5
199
  8
LAYER_1
 10
69.50968199820073
 20
-35.3016391739126
 30
0.0
  0
VERTEX
  5
19A
  8
LAYER_1
 10
69.51541024680122
 20
-35.26079675844161
 30
0.0
  0
VERTEX
  5
19B
  8
LAYER_1
 10
69.53490154024112
 20
-35.22015842610992
 30
0.0
  0
VERTEX
  5
19C
  8
LAYER_1
 10
69.56926686081833
 20
-35.17613475137276
 30
0.0
  0
VERTEX
  5
19D
  8
LAYER_1
 10
69.68706351257615
 20
-35.06357367250295
 30
0.0
  0
VERTEX
  5
19E
  8
LAYER_1
 10
69.77669338460076
 20
-34.97260807832728
 30
0.0
  0
VERTEX
  5
19F
  8
LAYER_1
 10
69.83854422964784
 20
-34.88555896170767
 30
0.0
  0
VERTEX
  5
1A0
  8
LAYER_1
 10
69.87028018294654
 20
-34.80657051083511
 30
0.0
  0
VERTEX
  5
1A1
  8
LAYER_1
 10
69.87412511744938
 20
-34.77139409386366
 30
0.0
  0
VERTEX
  5
1A2
  8
LAYER_1
 10
69.86956537972605
 20
-34.73978691390059
 30
0.0
  0
VERTEX
  5
1A3
  8
LAYER_1
 10
69.70481887059975
 20
-34.08749837428331
 30
0.0
  0
VERTEX
  5
1A4
  8
LAYER_1
 10
69.61065583187212
 20
-33.73558577956354
 30
0.0
  0
VERTEX
  5
1A5
  8
LAYER_1
 10
69.56767292290522
 20
-33.6114500941835
 30
0.0
  0
VERTEX
  5
1A6
  8
LAYER_1
 10
69.52502103282073
 20
-33.51739550208633
 30
0.0
  0
VERTEX
  5
1A7
  8
LAYER_1
 10
69.48089912058211
 20
-33.45007251724427
 30
0.0
  0
VERTEX
  5
1A8
  8
LAYER_1
 10
69.4335061451527
 20
-33.40613165362956
 30
0.0
  0
VERTEX
  5
1A9
  8
LAYER_1
 10
69.38104106549589
 20
-33.38222342521443
 30
0.0
  0
VERTEX
  5
1AA
  8
LAYER_1
 10
69.32170284057509
 20
-33.37499834597111
 30
0.0
  0
VERTEX
  5
1AB
  8
LAYER_1
 10
69.21176664926898
 20
-33.37499834597111
 30
0.0
  0
VERTEX
  5
1AC
  8
LAYER_1
 10
67.6125056669116
 20
-34.52955923507689
 30
0.0
  0
VERTEX
  5
1AD
  8
LAYER_1
 10
67.27490051338074
 20
-34.80615234007445
 30
0.0
  0
VERTEX
  5
1AE
  8
LAYER_1
 10
67.19079737314344
 20
-34.88021943186642
 30
0.0
  0
VERTEX
  5
1AF
  8
LAYER_1
 10
67.1081100125767
 20
-34.96347964816295
 30
0.0
  0
VERTEX
  5
1B0
  8
LAYER_1
 10
66.94667429229712
 20
-35.15799334743278
 30
0.0
  0
VERTEX
  5
1B1
  8
LAYER_1
 10
66.78997667622636
 20
-35.39052122421016
 30
0.0
  0
VERTEX
  5
1B2
  8
LAYER_1
 10
66.63740048804877
 20
-35.66189106482128
 30
0.0
  0
VERTEX
  5
1B3
  8
LAYER_1
 10
66.51949942811007
 20
-35.88217011179694
 30
0.0
  0
VERTEX
  5
1B4
  8
LAYER_1
 10
66.41538200829696
 20
-36.05196543005366
 30
0.0
  0
VERTEX
  5
1B5
  8
LAYER_1
 10
66.31464808084854
 20
-36.17778450938935
 30
0.0
  0
VERTEX
  5
1B6
  8
LAYER_1
 10
66.26229988058583
 20
-36.22623655002367
 30
0.0
  0
VERTEX
  5
1B7
  8
LAYER_1
 10
66.20689749800394
 20
-36.26613483960196
 30
0.0
  0
VERTEX
  5
1B8
  8
LAYER_1
 10
66.14714091463279
 20
-36.29829281434897
 30
0.0
  0
VERTEX
  5
1B9
  8
LAYER_1
 10
66.08173011200225
 20
-36.32352391048943
 30
0.0
  0
VERTEX
  5
1BA
  8
LAYER_1
 10
65.92874577508263
 20
-36.3564592118497
 30
0.0
  0
VERTEX
  5
1BB
  8
LAYER_1
 10
65.73754433948415
 20
-36.37144823348072
 30
0.0
  0
VERTEX
  5
1BC
  8
LAYER_1
 10
65.49772565744595
 20
-36.3749984651804
 30
0.0
  0
VERTEX
  5
1BD
  8
LAYER_1
 10
65.2826647318818
 20
-36.36674507888144
 30
0.0
  0
VERTEX
  5
1BE
  8
LAYER_1
 10
65.09305056257702
 20
-36.34110732360834
 30
0.0
  0
VERTEX
  5
1BF
  8
LAYER_1
 10
64.92648278329827
 20
-36.29676880479681
 30
0.0
  0
VERTEX
  5
1C0
  8
LAYER_1
 10
64.78056102781221
 20
-36.23241312788254
 30
0.0
  0
VERTEX
  5
1C1
  8
LAYER_1
 10
64.65288492988549
 20
-36.1467238983012
 30
0.0
  0
VERTEX
  5
1C2
  8
LAYER_1
 10
64.54105412328471
 20
-36.0383847214885
 30
0.0
  0
VERTEX
  5
1C3
  8
LAYER_1
 10
64.44266824177657
 20
-35.90607920288014
 30
0.0
  0
VERTEX
  5
1C4
  8
LAYER_1
 10
64.35532691912766
 20
-35.74849094791179
 30
0.0
  0
VERTEX
  5
1C5
  8
LAYER_1
 10
64.29282035260191
 20
-35.59284960933584
 30
0.0
  0
VERTEX
  5
1C6
  8
LAYER_1
 10
64.24654842758949
 20
-35.42159280873709
 30
0.0
  0
VERTEX
  5
1C7
  8
LAYER_1
 10
64.21667814846106
 20
-35.24089790334961
 30
0.0
  0
VERTEX
  5
1C8
  8
LAYER_1
 10
64.20337651958727
 20
-35.05694225040747
 30
0.0
  0
VERTEX
  5
1C9
  8
LAYER_1
 10
64.20681054533875
 20
-34.87590320714475
 30
0.0
  0
VERTEX
  5
1CA
  8
LAYER_1
 10
64.22714723008616
 20
-34.70395813079548
 30
0.0
  0
VERTEX
  5
1CB
  8
LAYER_1
 10
64.26455357820015
 20
-34.54728437859377
 30
0.0
  0
VERTEX
  5
1CC
  8
LAYER_1
 10
64.31919659405139
 20
-34.41205930777365
 30
0.0
  0
VERTEX
  5
1CD
  8
LAYER_1
 10
64.43838765679172
 20
-34.18156920824087
 30
0.0
  0
VERTEX
  5
1CE
  8
LAYER_1
 10
65.70371176110413
 20
-32.25096514283959
 30
0.0
  0
VERTEX
  5
1CF
  8
LAYER_1
 10
65.88935868346047
 20
-31.90181125949647
 30
0.0
  0
VERTEX
  5
1D0
  8
LAYER_1
 10
65.96144190253167
 20
-31.75480139383432
 30
0.0
  0
VERTEX
  5
1D1
  8
LAYER_1
 10
66.02047182237466
 20
-31.61263296569582
 30
0.0
  0
VERTEX
  5
1D2
  8
LAYER_1
 10
66.06035690334966
 20
-31.49151979771585
 30
0.0
  0
VERTEX
  5
1D3
  8
LAYER_1
 10
66.07500560581684
 20
-31.40767571252927
 30
0.0
  0
VERTEX
  5
1D4
  8
LAYER_1
 10
66.06092987076059
 20
-31.30451049433693
 30
0.0
  0
VERTEX
  5
1D5
  8
LAYER_1
 10
66.02024842808893
 20
-31.14158994121343
 30
0.0
  0
VERTEX
  5
1D6
  8
LAYER_1
 10
65.86834299488224
 20
-30.66350380121796
 30
0.0
  0
VERTEX
  5
1D7
  8
LAYER_1
 10
65.63783845616224
 20
-30.02745923463295
 30
0.0
  0
VERTEX
  5
1D8
  8
LAYER_1
 10
65.34728396189445
 20
-29.28749818354845
 30
0.0
  0
VERTEX
  5
1D9
  8
LAYER_1
 10
65.0121304821792
 20
-28.4624981507659
 30
0.0
  0
VERTEX
  5
1DA
  8
LAYER_1
 10
64.87323480699465
 20
-28.31924826804026
 30
0.0
  0
VERTEX
  5
1DB
  8
LAYER_1
 10
64.7975571893338
 20
-28.23263772112124
 30
0.0
  0
VERTEX
  5
1DC
  8
LAYER_1
 10
64.77939482678386
 20
-28.19601778131774
 30
0.0
  0
VERTEX
  5
1DD
  8
LAYER_1
 10
64.77465722391099
 20
-28.15778255628519
 30
0.0
  0
VERTEX
  5
1DE
  8
LAYER_1
 10
64.78357472733282
 20
-28.11337791527382
 30
0.0
  0
VERTEX
  5
1DF
  8
LAYER_1
 10
64.8063776836669
 20
-28.05824972753385
 30
0.0
  0
VERTEX
  5
1E0
  8
LAYER_1
 10
64.89456134154221
 20
-27.897606188869
 30
0.0
  0
VERTEX
  5
1E1
  8
LAYER_1
 10
65.05478355127434
 20
-27.61921399242337
 30
0.0
  0
VERTEX
  5
1E2
  8
LAYER_1
 10
64.30527409348909
 20
-26.36249806731939
 30
0.0
  0
VERTEX
  5
1E3
  8
LAYER_1
 10
63.98929890120561
 20
-26.36249806731939
 30
0.0
  0
VERTEX
  5
1E4
  8
LAYER_1
 10
62.38501132510663
 20
-28.38749814778566
 30
0.0
  0
VERTEX
  5
1E5
  8
LAYER_1
 10
62.2907300029639
 20
-28.57499815523624
 30
0.0
  0
VERTEX
  5
1E6
  8
LAYER_1
 10
62.24342230453401
 20
-28.694060579097
 30
0.0
  0
VERTEX
  5
1E7
  8
LAYER_1
 10
62.18431004855647
 20
-28.87963431429926
 30
0.0
  0
VERTEX
  5
1E8
  8
LAYER_1
 10
62.06084435522422
 20
-29.34875953732869
 30
0.0
  0
VERTEX
  5
1E9
  8
LAYER_1
 10
61.97711487709532
 20
-29.6876373663984
 30
0.0
  0
VERTEX
  5
1EA
  8
LAYER_1
 10
61.93958828705819
 20
-29.79852426971286
 30
0.0
  0
VERTEX
  5
1EB
  8
LAYER_1
 10
61.89768358902489
 20
-29.88184089749225
 30
0.0
  0
VERTEX
  5
1EC
  8
LAYER_1
 10
61.84594812748468
 20
-29.94618554869548
 30
0.0
  0
VERTEX
  5
1ED
  8
LAYER_1
 10
61.77892924692677
 20
-30.00015652228144
 30
0.0
  0
VERTEX
  5
1EE
  8
LAYER_1
 10
61.57723060671481
 20
-30.11137063243715
 30
0.0
  0
VERTEX
  5
1EF
  8
LAYER_1
 10
61.38285496031669
 20
-30.20392009214588
 30
0.0
  0
VERTEX
  5
1F0
  8
LAYER_1
 10
61.20821914882356
 20
-30.27344983516851
 30
0.0
  0
VERTEX
  5
1F1
  8
LAYER_1
 10
61.04923482733957
 20
-30.32035080805364
 30
0.0
  0
VERTEX
  5
1F2
  8
LAYER_1
 10
60.90181365096887
 20
-30.3450139573499
 30
0.0
  0
VERTEX
  5
1F3
  8
LAYER_1
 10
60.76186727481561
 20
-30.3478302296059
 30
0.0
  0
VERTEX
  5
1F4
  8
LAYER_1
 10
60.62530735398394
 20
-30.32919057137028
 30
0.0
  0
VERTEX
  5
1F5
  8
LAYER_1
 10
60.48804554357802
 20
-30.28948592919163
 30
0.0
  0
VERTEX
  5
1F6
  8
LAYER_1
 10
60.345993498702
 20
-30.22910724961858
 30
0.0
  0
VERTEX
  5
1F7
  8
LAYER_1
 10
60.20054532476517
 20
-30.14874022639368
 30
0.0
  0
VERTEX
  5
1F8
  8
LAYER_1
 10
60.06702872268639
 20
-30.05454057108307
 30
0.0
  0
VERTEX
  5
1F9
  8
LAYER_1
 10
59.94604718714218
 20
-29.94725783074711
 30
0.0
  0
VERTEX
  5
1FA
  8
LAYER_1
 10
59.83820421280899
 20
-29.82764155244618
 30
0.0
  0
VERTEX
  5
1FB
  8
LAYER_1
 10
59.74410329436333
 20
-29.69644128324066
 30
0.0
  0
VERTEX
  5
1FC
  8
LAYER_1
 10
59.66434792648166
 20
-29.55440657019092
 30
0.0
  0
VERTEX
  5
1FD
  8
LAYER_1
 10
59.59954160384048
 20
-29.40228696035736
 30
0.0
  0
VERTEX
  5
1FE
  8
LAYER_1
 10
59.55028782111626
 20
-29.24083200080035
 30
0.0
  0
VERTEX
  5
1FF
  8
LAYER_1
 10
59.46858411401294
 20
-28.91249816864729
 30
0.0
  0
VERTEX
  5
200
  8
LAYER_1
 10
60.24249820659364
 20
-26.43749807029963
 30
0.0
  0
VERTEX
  5
201
  8
LAYER_1
 10
60.34625179444652
 20
-26.10682824085787
 30
0.0
  0
VERTEX
  5
202
  8
LAYER_1
 10
60.38803103206912
 20
-25.95695144820759
 30
0.0
  0
VERTEX
  5
203
  8
LAYER_1
 10
60.41854849450837
 20
-25.81058970404818
 30
0.0
  0
VERTEX
  5
204
  8
LAYER_1
 10
60.43777501807661
 20
-25.66944090392873
 30
0.0
  0
VERTEX
  5
205
  8
LAYER_1
 10
60.44568143908621
 20
-25.53520294339828
 30
0.0
  0
VERTEX
  5
206
  8
LAYER_1
 10
60.44223859384954
 20
-25.40957371800591
 30
0.0
  0
VERTEX
  5
207
  8
LAYER_1
 10
60.42741731867896
 20
-25.29425112330067
 30
0.0
  0
VERTEX
  5
208
  8
LAYER_1
 10
60.40118844988682
 20
-25.19093305483164
 30
0.0
  0
VERTEX
  5
209
  8
LAYER_1
 10
60.36352282378547
 20
-25.10131740814788
 30
0.0
  0
VERTEX
  5
20A
  8
LAYER_1
 10
60.27704026527149
 20
-24.93749801069498
 30
0.0
  0
VERTEX
  5
20B
  8
LAYER_1
 10
58.62342303716912
 20
-22.62900355627121
 30
0.0
  0
VERTEX
  5
20C
  8
LAYER_1
 10
58.48461095816586
 20
-22.59270338216933
 30
0.0
  0
VERTEX
  5
20D
  8
LAYER_1
 10
58.42925001814562
 20
-22.56911011009532
 30
0.0
  0
VERTEX
  5
20E
  8
LAYER_1
 10
58.39272409688418
 20
-22.5334167862934
 30
0.0
  0
VERTEX
  5
20F
  8
LAYER_1
 10
58.37644899418063
 20
-22.48780355419391
 30
0.0
  0
VERTEX
  5
210
  8
LAYER_1
 10
58.38184050983412
 20
-22.43445055722715
 30
0.0
  0
VERTEX
  5
211
  8
LAYER_1
 10
58.43056063473288
 20
-22.26544904063594
 30
0.0
  0
VERTEX
  5
212
  8
LAYER_1
 10
58.4617628813194
 20
-22.13252271138004
 30
0.0
  0
VERTEX
  5
213
  8
LAYER_1
 10
58.47214939569563
 20
-22.0244787611365
 30
0.0
  0
VERTEX
  5
214
  8
LAYER_1
 10
58.45842232396356
 20
-21.93012438158234
 30
0.0
  0
VERTEX
  5
215
  8
LAYER_1
 10
58.41728381222519
 20
-21.83826676439459
 30
0.0
  0
VERTEX
  5
216
  8
LAYER_1
 10
58.34543600658249
 20
-21.73771310125027
 30
0.0
  0
VERTEX
  5
217
  8
LAYER_1
 10
58.09642109799205
 20
-21.46574640380007
 30
0.0
  0
VERTEX
  5
218
  8
LAYER_1
 10
57.91322545718087
 20
-21.27887220490147
 30
0.0
  0
VERTEX
  5
219
  8
LAYER_1
 10
57.75478104550871
 20
-21.12903407614164
 30
0.0
  0
VERTEX
  5
21A
  8
LAYER_1
 10
57.6187422059575
 20
-21.01484142877786
 30
0.0
  0
VERTEX
  5
21B
  8
LAYER_1
 10
57.50276328150913
 20
-20.93490367406743
 30
0.0
  0
VERTEX
  5
21C
  8
LAYER_1
 10
57.40449861514554
 20
-20.88783022326765
 30
0.0
  0
VERTEX
  5
21D
  8
LAYER_1
 10
57.32160254984865
 20
-20.8722304876358
 30
0.0
  0
VERTEX
  5
21E
  8
LAYER_1
 10
57.28518472478206
 20
-20.87579870402575
 30
0.0
  0
VERTEX
  5
21F
  8
LAYER_1
 10
57.25172942860036
 20
-20.88671387842917
 30
0.0
  0
VERTEX
  5
220
  8
LAYER_1
 10
57.19253359438258
 20
-20.92988980690507
 30
0.0
  0
VERTEX
  5
221
  8
LAYER_1
 10
57.08948869986938
 20
-21.0374978557229
 30
0.0
  0
VERTEX
  5
222
  8
LAYER_1
 10
56.01391920512867
 20
-23.5874979570508
 30
0.0
  0
VERTEX
  5
223
  8
LAYER_1
 10
56.0636343755327
 20
-24.26249798387289
 30
0.0
  0
VERTEX
  5
224
  8
LAYER_1
 10
56.08883665120432
 20
-24.65476360635844
 30
0.0
  0
VERTEX
  5
225
  8
LAYER_1
 10
56.08965839910963
 20
-24.78215556699715
 30
0.0
  0
VERTEX
  5
226
  8
LAYER_1
 10
56.08010902473343
 20
-24.8771990122658
 30
0.0
  0
VERTEX
  5
227
  8
LAYER_1
 10
56.05829988132982
 20
-24.95000298093888
 30
0.0
  0
VERTEX
  5
228
  8
LAYER_1
 10
56.02234232215292
 20
-25.01067651179088
 30
0.0
  0
VERTEX
  5
229
  8
LAYER_1
 10
55.9004273694957
 20
-25.13606841512961
 30
0.0
  0
VERTEX
  5
22A
  8
LAYER_1
 10
55.77385869445727
 20
-25.24444564443749
 30
0.0
  0
VERTEX
  5
22B
  8
LAYER_1
 10
55.63797066563414
 20
-25.34316972980529
 30
0.0
  0
VERTEX
  5
22C
  8
LAYER_1
 10
55.49591873453265
 20
-25.43076209658547
 30
0.0
  0
VERTEX
  5
22D
  8
LAYER_1
 10
55.35085835265915
 20
-25.50574417013046
 30
0.0
  0
VERTEX
  5
22E
  8
LAYER_1
 10
55.20594497151995
 20
-25.56663737579268
 30
0.0
  0
VERTEX
  5
22F
  8
LAYER_1
 10
55.06433404262144
 20
-25.61196313892459
 30
0.0
  0
VERTEX
  5
230
  8
LAYER_1
 10
54.92918101746994
 20
-25.64024288487861
 30
0.0
  0
VERTEX
  5
231
  8
LAYER_1
 10
54.80364134757178
 20
-25.64999803900719
 30
0.0
  0
VERTEX
  5
232
  8
LAYER_1
 10
54.62453907231431
 20
-25.63471663617482
 30
0.0
  0
VERTEX
  5
233
  8
LAYER_1
 10
54.44440738244579
 20
-25.59060167811232
 30
0.0
  0
VERTEX
  5
234
  8
LAYER_1
 10
54.26732475769286
 20
-25.52024704047165
 30
0.0
  0
VERTEX
  5
235
  8
LAYER_1
 10
54.09736967778215
 20
-25.42624659890472
 30
0.0
  0
VERTEX
  5
236
  8
LAYER_1
 10
53.93862062244027
 20
-25.31119422906347
 30
0.0
  0
VERTEX
  5
237
  8
LAYER_1
 10
53.79515607139385
 20
-25.17768380659985
 30
0.0
  0
VERTEX
  5
238
  8
LAYER_1
 10
53.6710545043695
 20
-25.02830920716578
 30
0.0
  0
VERTEX
  5
239
  8
LAYER_1
 10
53.57039440109386
 20
-24.86566430641319
 30
0.0
  0
VERTEX
  5
23A
  8
LAYER_1
 10
53.4550357920069
 20
-24.64383059617096
 30
0.0
  0
VERTEX
  5
23B
  8
LAYER_1
 10
53.56268098234881
 20
-21.16187965004199
 30
0.0
  0
VERTEX
  5
23C
  8
LAYER_1
 10
53.43503653474835
 20
-20.89288894410242
 30
0.0
  0
VERTEX
  5
23D
  8
LAYER_1
 10
53.3989986654132
 20
-20.82992761678323
 30
0.0
  0
VERTEX
  5
23E
  8
LAYER_1
 10
53.3464649478307
 20
-20.75660691326319
 30
0.0
  0
VERTEX
  5
23F
  8
LAYER_1
 10
53.20084559248833
 20
-20.58834193088286
 30
0.0
  0
VERTEX
  5
240
  8
LAYER_1
 10
53.01604971785038
 20
-20.40700310348601
 30
0.0
  0
VERTEX
  5
241
  8
LAYER_1
 10
52.80994857304604
 20
-20.23149953759719
 30
0.0
  0
VERTEX
  5
242
  8
LAYER_1
 10
52.27136345877037
 20
-19.79755616490991
 30
0.0
  0
VERTEX
  5
243
  8
LAYER_1
 10
51.67500503361225
 20
-19.30527346541355
 30
0.0
  0
VERTEX
  5
244
  8
LAYER_1
 10
51.03750500828028
 20
-18.77144609379558
 30
0.0
  0
VERTEX
  5
245
  8
LAYER_1
 10
50.86875500157475
 20
-18.71816785232797
 30
0.0
  0
VERTEX
  5
246
  8
LAYER_1
 10
50.82239189376045
 20
-18.70070742660586
 30
0.0
  0
VERTEX
  5
247
  8
LAYER_1
 10
50.78491692671306
 20
-18.67946457321681
 30
0.0
  0
VERTEX
  5
248
  8
LAYER_1
 10
50.75549593818855
 20
-18.65276059480207
 30
0.0
  0
VERTEX
  5
249
  8
LAYER_1
 10
50.73329476594292
 20
-18.61891679400287
 30
0.0
  0
VERTEX
  5
24A
  8
LAYER_1
 10
50.71747924773217
 20
-18.57625447346044
 30
0.0
  0
VERTEX
  5
24B
  8
LAYER_1
 10
50.70721522131231
 20
-18.523094935816
 30
0.0
  0
VERTEX
  5
24C
  8
LAYER_1
 10
50.70000499486923
 20
-18.37856941978605
 30
0.0
  0
VERTEX
  5
24D
  8
LAYER_1
 10
50.69799739981619
 20
-18.2724663025175
 30
0.0
  0
VERTEX
  5
24E
  8
LAYER_1
 10
50.68568982022963
 20
-18.18651790541952
 30
0.0
  0
VERTEX
  5
24F
  8
LAYER_1
 10
50.65365506446842
 20
-18.11191530445812
 30
0.0
  0
VERTEX
  5
250
  8
LAYER_1
 10
50.59246594089144
 20
-18.03984957559933
 30
0.0
  0
VERTEX
  5
251
  8
LAYER_1
 10
50.49269525785758
 20
-17.96151179480918
 30
0.0
  0
VERTEX
  5
252
  8
LAYER_1
 10
50.34491582372567
 20
-17.86809303805367
 30
0.0
  0
VERTEX
  5
253
  8
LAYER_1
 10
49.86762193560328
 20
-17.6007769005107
 30
0.0
  0
VERTEX
  5
254
  8
LAYER_1
 10
49.60983118561663
 20
-17.46562321064444
 30
0.0
  0
VERTEX
  5
255
  8
LAYER_1
 10
49.51597821989219
 20
-17.42345966962539
 30
0.0
  0
VERTEX
  5
256
  8
LAYER_1
 10
49.44039261695949
 20
-17.39678740488968
 30
0.0
  0
VERTEX
  5
257
  8
LAYER_1
 10
49.37925369427791
 20
-17.38451822169275
 30
0.0
  0
VERTEX
  5
258
  8
LAYER_1
 10
49.32874076930678
 20
-17.38556392529008
 30
0.0
  0
VERTEX
  5
259
  8
LAYER_1
 10
49.2850331595055
 20
-17.39883632093711
 30
0.0
  0
VERTEX
  5
25A
  8
LAYER_1
 10
49.24431018233341
 20
-17.42324721388932
 30
0.0
  0
VERTEX
  5
25B
  8
LAYER_1
 10
49.11588147491841
 20
-17.51715657756089
 30
0.0
  0
VERTEX
  5
25C
  8
LAYER_1
 10
48.7196957492984
 20
-20.24456459816116
 30
0.0
  0
VERTEX
  5
25D
  8
LAYER_1
 10
49.12302634385121
 20
-21.63310843168271
 30
0.0
  0
VERTEX
  5
25E
  8
LAYER_1
 10
48.92471686580456
 20
-21.93530316754467
 30
0.0
  0
VERTEX
  5
25F
  8
LAYER_1
 10
48.73278132082633
 20
-22.19749421227691
 30
0.0
  0
VERTEX
  5
260
  8
LAYER_1
 10
48.63401899556219
 20
-22.31520547718636
 30
0.0
  0
VERTEX
  5
261
  8
LAYER_1
 10
48.54979640526336
 20
-22.40350986095467
 30
0.0
  0
VERTEX
  5
262
  8
LAYER_1
 10
48.42247214527601
 20
-22.50543848206141
 30
0.0
  0
VERTEX
  5
263
  8
LAYER_1
 10
48.28389367484295
 20
-22.58435738865699
 30
0.0
  0
VERTEX
  5
264
  8
LAYER_1
 10
48.13632274408567
 20
-22.64102121627075
 30
0.0
  0
VERTEX
  5
265
  8
LAYER_1
 10
47.98202110312565
 20
-22.67618460043205
 30
0.0
  0
VERTEX
  5
266
  8
LAYER_1
 10
47.82325050208441
 20
-22.69060217667021
 30
0.0
  0
VERTEX
  5
267
  8
LAYER_1
 10
47.6622726910834
 20
-22.68502858051458
 30
0.0
  0
VERTEX
  5
268
  8
LAYER_1
 10
47.50134942024414
 20
-22.66021844749451
 30
0.0
  0
VERTEX
  5
269
  8
LAYER_1
 10
47.34274243968811
 20
-22.61692641313934
 30
0.0
  0
VERTEX
  5
26A
  8
LAYER_1
 10
47.18871349953682
 20
-22.55590711297841
 30
0.0
  0
VERTEX
  5
26B
  8
LAYER_1
 10
47.04152434991173
 20
-22.47791518254107
 30
0.0
  0
VERTEX
  5
26C
  8
LAYER_1
 10
46.90343674093435
 20
-22.38370525735665
 30
0.0
  0
VERTEX
  5
26D
  8
LAYER_1
 10
46.77671242272618
 20
-22.27403197295451
 30
0.0
  0
VERTEX
  5
26E
  8
LAYER_1
 10
46.66361314540869
 20
-22.14964996486399
 30
0.0
  0
VERTEX
  5
26F
  8
LAYER_1
 10
46.56640065910338
 20
-22.01131386861442
 30
0.0
  0
VERTEX
  5
270
  8
LAYER_1
 10
46.48733671393175
 20
-21.85977831973516
 30
0.0
  0
VERTEX
  5
271
  8
LAYER_1
 10
46.42868306001527
 20
-21.69579795375554
 30
0.0
  0
VERTEX
  5
272
  8
LAYER_1
 10
46.34917859387264
 20
-21.41249787062407
 30
0.0
  0
VERTEX
  5
273
  8
LAYER_1
 10
45.82697339042009
 20
-18.9374977722764
 30
0.0
  0
VERTEX
  5
274
  8
LAYER_1
 10
45.6728548931155
 20
-18.63749776035547
 30
0.0
  0
VERTEX
  5
275
  8
LAYER_1
 10
45.59994544782657
 20
-18.51169642918723
 30
0.0
  0
VERTEX
  5
276
  8
LAYER_1
 10
45.51535906020827
 20
-18.39093786303653
 30
0.0
  0
VERTEX
  5
277
  8
LAYER_1
 10
45.42958701221883
 20
-18.28894018818227
 30
0.0
  0
VERTEX
  5
278
  8
LAYER_1
 10
45.35312058581653
 20
-18.21942153090335
 30
0.0
  0
VERTEX
  5
279
  8
LAYER_1
 10
45.18750477582216
 20
-18.10134531337214
 30
0.0
  0
VERTEX
  5
27A
  8
LAYER_1
 10
43.16250469535589
 20
-17.22773912614648
 30
0.0
  0
VERTEX
  5
27B
  8
LAYER_1
 10
42.90111536912333
 20
-17.08886840972337
 30
0.0
  0
VERTEX
  5
27C
  8
LAYER_1
 10
42.7866899384543
 20
-17.0349475143622
 30
0.0
  0
VERTEX
  5
27D
  8
LAYER_1
 10
42.66836307841325
 20
-16.99079096624954
 30
0.0
  0
VERTEX
  5
27E
  8
LAYER_1
 10
42.56008964573646
 20
-16.96095546076801
 30
0.0
  0
VERTEX
  5
27F
  8
LAYER_1
 10
42.47582449716023
 20
-16.94999769330025
 30
0.0
  0
VERTEX
  5
280
  8
LAYER_1
 10
42.39691335155783
 20
-16.93833455911165
 30
0.0
  0
VERTEX
  5
281
  8
LAYER_1
 10
42.36517632211954
 20
-16.92297734042814
 30
0.0
  0
VERTEX
  5
282
  8
LAYER_1
 10
42.33791719782626
 20
-16.90057786428714
 30
0.0
  0
VERTEX
  5
283
  8
LAYER_1
 10
42.29482929338395
 20
-16.83257667043859
 30
0.0
  0
VERTEX
  5
284
  8
LAYER_1
 10
42.26364289564927
 20
-16.73018003917791
 30
0.0
  0
VERTEX
  5
285
  8
LAYER_1
 10
42.23711015245276
 20
-16.63836674231364
 30
0.0
  0
VERTEX
  5
286
  8
LAYER_1
 10
42.20055772953854
 20
-16.55087643501895
 30
0.0
  0
VERTEX
  5
287
  8
LAYER_1
 10
42.15880776789135
 20
-16.47760914526459
 30
0.0
  0
VERTEX
  5
288
  8
LAYER_1
 10
42.11668240849588
 20
-16.42846490102134
 30
0.0
  0
VERTEX
  5
289
  8
LAYER_1
 10
42.01800197712288
 20
-16.34656741698711
 30
0.0
  0
VERTEX
  5
28A
  8
LAYER_1
 10
41.39025328855567
 20
-16.1636420094142
 30
0.0
  0
VERTEX
  5
28B
  8
LAYER_1
 10
41.03415503641331
 20
-16.06350140767502
 30
0.0
  0
VERTEX
  5
28C
  8
LAYER_1
 10
40.91732968598694
 20
-16.03672850147876
 30
0.0
  0
VERTEX
  5
28D
  8
LAYER_1
 10
40.83069018829249
 20
-16.02482273789831
 30
0.0
  0
VERTEX
  5
28E
  8
LAYER_1
 10
40.76626404505653
 20
-16.02728577655888
 30
0.0
  0
VERTEX
  5
28F
  8
LAYER_1
 10
40.71607875800561
 20
-16.04361927708569
 30
0.0
  0
VERTEX
  5
290
  8
LAYER_1
 10
40.62654075936507
 20
-16.11590430223877
 30
0.0
  0
VERTEX
  5
291
  8
LAYER_1
 10
40.49057691874167
 20
-16.25109200263625
 30
0.0
  0
VERTEX
  5
292
  8
LAYER_1
 10
40.80427576027169
 20
-18.91570627045665
 30
0.0
  0
VERTEX
  5
293
  8
LAYER_1
 10
40.92403955551049
 20
-19.15160203030722
 30
0.0
  0
VERTEX
  5
294
  8
LAYER_1
 10
41.08264509047075
 20
-19.43937529051663
 30
0.0
  0
VERTEX
  5
295
  8
LAYER_1
 10
41.29579434503989
 20
-19.79999780654907
 30
0.0
  0
VERTEX
  5
296
  8
LAYER_1
 10
41.4333727454234
 20
-20.03571248026629
 30
0.0
  0
VERTEX
  5
297
  8
LAYER_1
 10
41.4739900827667
 20
-20.12183684045965
 30
0.0
  0
VERTEX
  5
298
  8
LAYER_1
 10
41.49794170221169
 20
-20.19605151487908
 30
0.0
  0
VERTEX
  5
299
  8
LAYER_1
 10
41.50681424675881
 20
-20.26529072752677
 30
0.0
  0
VERTEX
  5
29A
  8
LAYER_1
 10
41.50219435940853
 20
-20.33648870240491
 30
0.0
  0
VERTEX
  5
29B
  8
LAYER_1
 10
41.45882386101772
 20
-20.51249783486128
 30
0.0
  0
VERTEX
  5
29C
  8
LAYER_1
 10
41.40374655980662
 20
-20.67481069942723
 30
0.0
  0
VERTEX
  5
29D
  8
LAYER_1
 10
41.33727409759386
 20
-20.83106586668966
 30
0.0
  0
VERTEX
  5
29E
  8
LAYER_1
 10
41.26128141052695
 20
-20.97847718504721
 30
0.0
  0
VERTEX
  5
29F
  8
LAYER_1
 10
41.17764343475337
 20
-21.11425850289853
 30
0.0
  0
VERTEX
  5
2A0
  8
LAYER_1
 10
41.08823510642063
 20
-21.23562366864227
 30
0.0
  0
VERTEX
  5
2A1
  8
LAYER_1
 10
40.9949313616762
 20
-21.33978653067708
 30
0.0
  0
VERTEX
  5
2A2
  8
LAYER_1
 10
40.8996071366676
 20
-21.42396093740162
 30
0.0
  0
VERTEX
  5
2A3
  8
LAYER_1
 10
40.80413736754231
 20
-21.48536073721453
 30
0.0
  0
VERTEX
  5
2A4
  8
LAYER_1
 10
40.68150442512029
 20
-21.53323969567075
 30
0.0
  0
VERTEX
  5
2A5
  8
LAYER_1
 10
40.53048115342824
 20
-21.56763529321275
 30
0.0
  0
VERTEX
  5
2A6
  8
LAYER_1
 10
40.35955770221881
 20
-21.58852124869449
 30
0.0
  0
VERTEX
  5
2A7
  8
LAYER_1
 10
40.17722422124465
 20
-21.59587128096989
 30
0.0
  0
VERTEX
  5
2A8
  8
LAYER_1
 10
39.99197086025843
 20
-21.58965910889291
 30
0.0
  0
VERTEX
  5
2A9
  8
LAYER_1
 10
39.81228776901281
 20
-21.56985845131749
 30
0.0
  0
VERTEX
  5
2AA
  8
LAYER_1
 10
39.64666509726044
 20
-21.53644302709756
 30
0.0
  0
VERTEX
  5
2AB
  8
LAYER_1
 10
39.50359299475397
 20
-21.48938655508709
 30
0.0
  0
VERTEX
  5
2AC
  8
LAYER_1
 10
39.38825888816035
 20
-21.43049069608725
 30
0.0
  0
VERTEX
  5
2AD
  8
LAYER_1
 10
39.26992756318897
 20
-21.35189818794471
 30
0.0
  0
VERTEX
  5
2AE
  8
LAYER_1
 10
39.16250194037775
 20
-21.26387012174781
 30
0.0
  0
VERTEX
  5
2AF
  8
LAYER_1
 10
39.07988494026463
 20
-21.17666758858491
 30
0.0
  0
VERTEX
  5
2B0
  8
LAYER_1
 10
38.92090704470563
 20
-20.97455994507027
 30
0.0
  0
VERTEX
  5
2B1
  8
LAYER_1
 10
37.63235920386356
 20
-18.41249775141478
 30
0.0
  0
VERTEX
  5
2B2
  8
LAYER_1
 10
37.47243183338067
 20
-18.23662169276042
 30
0.0
  0
VERTEX
  5
2B3
  8
LAYER_1
 10
37.39492153574411
 20
-18.16031087627999
 30
0.0
  0
VERTEX
  5
2B4
  8
LAYER_1
 10
37.30210218375029
 20
-18.08254722971725
 30
0.0
  0
VERTEX
  5
2B5
  8
LAYER_1
 10
37.20563096780043
 20
-18.01243733480525
 30
0.0
  0
VERTEX
  5
2B6
  8
LAYER_1
 10
37.11716507829576
 20
-17.95908777327703
 30
0.0
  0
VERTEX
  5
2B7
  8
LAYER_1
 10
36.92182569369375
 20
-17.857429912448
 30
0.0
  0
VERTEX
  5
2B8
  8
LAYER_1
 10
34.07457682487102
 20
-17.40761480310076
 30
0.0
  0
VERTEX
  5
2B9
  8
LAYER_1
 10
33.92317971755678
 20
-17.44720603603375
 30
0.0
  0
VERTEX
  5
2BA
  8
LAYER_1
 10
33.88173836640398
 20
-17.45435744379721
 30
0.0
  0
VERTEX
  5
2BB
  8
LAYER_1
 10
33.84307054256281
 20
-17.45272487383261
 30
0.0
  0
VERTEX
  5
2BC
  8
LAYER_1
 10
33.80615054595866
 20
-17.44154577369083
 30
0.0
  0
VERTEX
  5
2BD
  8
LAYER_1
 10
33.76995267651692
 20
-17.42005759092273
 30
0.0
  0
VERTEX
  5
2BE
  8
LAYER_1
 10
33.69562051882228
 20
-17.3431037677111
 30
0.0
  0
VERTEX
  5
2BF
  8
LAYER_1
 10
33.61186846888208
 20
-17.21576298460471
 30
0.0
  0
VERTEX
  5
2C0
  8
LAYER_1
 10
33.45195432752162
 20
-16.94472870024268
 30
0.0
  0
VERTEX
  5
2C1
  8
LAYER_1
 10
31.92845179812855
 20
-16.98749769479036
 30
0.0
  0
VERTEX
  5
2C2
  8
LAYER_1
 10
31.85543768177398
 20
-17.10356651195389
 30
0.0
  0
VERTEX
  5
2C3
  8
LAYER_1
 10
31.83968730913093
 20
-17.13670281642803
 30
0.0
  0
VERTEX
  5
2C4
  8
LAYER_1
 10
31.83100414900325
 20
-17.17529044612188
 30
0.0
  0
VERTEX
  5
2C5
  8
LAYER_1
 10
31.83523612133718
 20
-17.27112485802131
 30
0.0
  0
VERTEX
  5
2C6
  8
LAYER_1
 10
31.86892690886211
 20
-17.39568010135738
 30
0.0
  0
VERTEX
  5
2C7
  8
LAYER_1
 10
31.93286982166441
 20
-17.55356652983528
 30
0.0
  0
VERTEX
  5
2C8
  8
LAYER_1
 10
32.08331607790942
 20
-17.88749773055315
 30
0.0
  0
VERTEX
  5
2C9
  8
LAYER_1
 10
32.4771087505959
 20
-18.87989707066803
 30
0.0
  0
VERTEX
  5
2CA
  8
LAYER_1
 10
32.70931186856045
 20
-19.44773185624334
 30
0.0
  0
VERTEX
  5
2CB
  8
LAYER_1
 10
32.80096414879946
 20
-19.64430471329256
 30
0.0
  0
VERTEX
  5
2CC
  8
LAYER_1
 10
32.88895692687205
 20
-19.8031923169588
 30
0.0
  0
VERTEX
  5
2CD
  8
LAYER_1
 10
32.98277021552507
 20
-19.93980299507405
 30
0.0
  0
VERTEX
  5
2CE
  8
LAYER_1
 10
33.09188402750532
 20
-20.06954507547032
 30
0.0
  0
VERTEX
  5
2CF
  8
LAYER_1
 10
33.39393327243485
 20
-20.37005675443384
 30
0.0
  0
VERTEX
  5
2D0
  8
LAYER_1
 10
33.91696512158735
 20
-20.86781709808478
 30
0.0
  0
VERTEX
  5
2D1
  8
LAYER_1
 10
33.86712718011907
 20
-21.25265748882477
 30
0.0
  0
VERTEX
  5
2D2
  8
LAYER_1
 10
33.83466104867514
 20
-21.44553789996514
 30
0.0
  0
VERTEX
  5
2D3
  8
LAYER_1
 10
33.78924868058819
 20
-21.62511199911474
 30
0.0
  0
VERTEX
  5
2D4
  8
LAYER_1
 10
33.73139563355554
 20
-21.79101657380406
 30
0.0
  0
VERTEX
  5
2D5
  8
LAYER_1
 10
33.66160746527455
 20
-21.94288841156358
 30
0.0
  0
VERTEX
  5
2D6
  8
LAYER_1
 10
33.58038973344257
 20
-22.08036429992377
 30
0.0
  0
VERTEX
  5
2D7
  8
LAYER_1
 10
33.48824799575696
 20
-22.20308102641514
 30
0.0
  0
VERTEX
  5
2D8
  8
LAYER_1
 10
33.38568780991507
 20
-22.31067537856816
 30
0.0
  0
VERTEX
  5
2D9
  8
LAYER_1
 10
33.27321473361424
 20
-22.4027841439133
 30
0.0
  0
VERTEX
  5
2DA
  8
LAYER_1
 10
33.15133432455183
 20
-22.47904410998105
 30
0.0
  0
VERTEX
  5
2DB
  8
LAYER_1
 10
33.02055214042517
 20
-22.5390920643019
 30
0.0
  0
VERTEX
  5
2DC
  8
LAYER_1
 10
32.88137373893164
 20
-22.58256479440631
 30
0.0
  0
VERTEX
  5
2DD
  8
LAYER_1
 10
32.73430467776858
 20
-22.60909908782479
 30
0.0
  0
VERTEX
  5
2DE
  8
LAYER_1
 10
32.57985051463334
 20
-22.6183317320878
 30
0.0
  0
VERTEX
  5
2DF
  8
LAYER_1
 10
32.41851680722326
 20
-22.60989951472583
 30
0.0
  0
VERTEX
  5
2E0
  8
LAYER_1
 10
32.25080911323569
 20
-22.58343922326937
 30
0.0
  0
VERTEX
  5
2E1
  8
LAYER_1
 10
32.077232990368
 20
-22.53858764524889
 30
0.0
  0
VERTEX
  5
2E2
  8
LAYER_1
 10
31.68750423938036
 20
-22.41887162403688
 30
0.0
  0
VERTEX
  5
2E3
  8
LAYER_1
 10
29.58750415593386
 20
-20.07750385199392
 30
0.0
  0
VERTEX
  5
2E4
  8
LAYER_1
 10
29.36250414699316
 20
-19.9390311838154
 30
0.0
  0
VERTEX
  5
2E5
  8
LAYER_1
 10
29.2360837592286
 20
-19.87793064465861
 30
0.0
  0
VERTEX
  5
2E6
  8
LAYER_1
 10
29.08364452732505
 20
-19.83466166276868
 30
0.0
  0
VERTEX
  5
2E7
  8
LAYER_1
 10
28.90357280343245
 20
-19.8088891857215
 30
0.0
  0
VERTEX
  5
2E8
  8
LAYER_1
 10
28.69425493970074
 20
-19.80027816109298
 30
0.0
  0
VERTEX
  5
2E9
  8
LAYER_1
 10
28.25100574134902
 20
-19.79999780654907
 30
0.0
  0
VERTEX
  5
2EA
  8
LAYER_1
 10
25.98750401288271
 20
-20.03464429046432
 30
0.0
  0
VERTEX
  5
2EB
  8
LAYER_1
 10
25.8346601707231
 20
-20.13362791171073
 30
0.0
  0
VERTEX
  5
2EC
  8
LAYER_1
 10
25.74631235237639
 20
-20.17921418786472
 30
0.0
  0
VERTEX
  5
2ED
  8
LAYER_1
 10
25.70735217834626
 20
-20.18578303127411
 30
0.0
  0
VERTEX
  5
2EE
  8
LAYER_1
 10
25.66793984153631
 20
-20.1804118121171
 30
0.0
  0
VERTEX
  5
2EF
  8
LAYER_1
 10
25.62512935229008
 20
-20.1622576308027
 30
0.0
  0
VERTEX
  5
2F0
  8
LAYER_1
 10
25.57597472095111
 20
-20.13047758773992
 30
0.0
  0
VERTEX
  5
2F1
  8
LAYER_1
 10
25.44684907336901
 20
-20.02266831800524
 30
0.0
  0
VERTEX
  5
2F2
  8
LAYER_1
 10
25.21188181817456
 20
-19.81272510305335
 30
0.0
  0
VERTEX
  5
2F3
  8
LAYER_1
 10
23.8689731668872
 20
-20.15442163753589
 30
0.0
  0
VERTEX
  5
2F4
  8
LAYER_1
 10
23.78448854443641
 20
-20.20663600573719
 30
0.0
  0
VERTEX
  5
2F5
  8
LAYER_1
 10
23.75168474962544
 20
-20.23500731386691
 30
0.0
  0
VERTEX
  5
2F6
  8
LAYER_1
 10
23.72482127983054
 20
-20.27365735812279
 30
0.0
  0
VERTEX
  5
2F7
  8
LAYER_1
 10
23.70667028672588
 20
-20.31750559895403
 30
0.0
  0
VERTEX
  5
2F8
  8
LAYER_1
 10
23.70000392198563
 20
-20.36147149680979
 30
0.0
  0
VERTEX
  5
2F9
  8
LAYER_1
 10
23.70000392198563
 20
-20.46409261968111
 30
0.0
  0
VERTEX
  5
2FA
  8
LAYER_1
 10
24.529650827859
 20
-21.57579527048457
 30
0.0
  0
VERTEX
  5
2FB
  8
LAYER_1
 10
25.01076331072022
 20
-22.21075809282362
 30
0.0
  0
VERTEX
  5
2FC
  8
LAYER_1
 10
25.18352102817021
 20
-22.42242535901378
 30
0.0
  0
VERTEX
  5
2FD
  8
LAYER_1
 10
25.33167772935687
 20
-22.58432329286631
 30
0.0
  0
VERTEX
  5
2FE
  8
LAYER_1
 10
25.47068191407301
 20
-22.7120319676177
 30
0.0
  0
VERTEX
  5
2FF
  8
LAYER_1
 10
25.61598208211145
 20
-22.8211314565044
 30
0.0
  0
VERTEX
  5
300
  8
LAYER_1
 10
25.98726436732646
 20
-23.04582316962961
 30
0.0
  0
VERTEX
  5
301
  8
LAYER_1
 10
26.61523100092052
 20
-23.40414841797121
 30
0.0
  0
VERTEX
  5
302
  8
LAYER_1
 10
26.69942688079205
 20
-23.80971779922057
 30
0.0
  0
VERTEX
  5
303
  8
LAYER_1
 10
26.7298745742311
 20
-23.99443449115415
 30
0.0
  0
VERTEX
  5
304
  8
LAYER_1
 10
26.74324459192387
 20
-24.17127460865235
 30
0.0
  0
VERTEX
  5
305
  8
LAYER_1
 10
26.73995856900054
 20
-24.33969556646598
 30
0.0
  0
VERTEX
  5
306
  8
LAYER_1
 10
26.72043814059131
 20
-24.49915477934586
 30
0.0
  0
VERTEX
  5
307
  8
LAYER_1
 10
26.68510494182637
 20
-24.64910966204279
 30
0.0
  0
VERTEX
  5
308
  8
LAYER_1
 10
26.63438060783593
 20
-24.78901762930758
 30
0.0
  0
VERTEX
  5
309
  8
LAYER_1
 10
26.56868677375018
 20
-24.91833609589105
 30
0.0
  0
VERTEX
  5
30A
  8
LAYER_1
 10
26.4884450746993
 20
-25.036522476544
 30
0.0
  0
VERTEX
  5
30B
  8
LAYER_1
 10
26.3940771458135
 20
-25.14303418601725
 30
0.0
  0
VERTEX
  5
30C
  8
LAYER_1
 10
26.28600462222298
 20
-25.23732863906159
 30
0.0
  0
VERTEX
  5
30D
  8
LAYER_1
 10
26.16464913905792
 20
-25.31886325042785
 30
0.0
  0
VERTEX
  5
30E
  8
LAYER_1
 10
26.03043233144852
 20
-25.38709543486684
 30
0.0
  0
VERTEX
  5
30F
  8
LAYER_1
 10
25.88377583452498
 20
-25.44148260712937
 30
0.0
  0
VERTEX
  5
310
  8
LAYER_1
 10
25.72510128341749
 20
-25.48148218196623
 30
0.0
  0
VERTEX
  5
311
  8
LAYER_1
 10
25.55483031325625
 20
-25.50655157412825
 30
0.0
  0
VERTEX
  5
312
  8
LAYER_1
 10
25.37338455917146
 20
-25.51614819836625
 30
0.0
  0
VERTEX
  5
313
  8
LAYER_1
 10
25.24868348684998
 20
-25.51501684116289
 30
0.0
  0
VERTEX
  5
314
  8
LAYER_1
 10
25.14116979376531
 20
-25.50747666870907
 30
0.0
  0
VERTEX
  5
315
  8
LAYER_1
 10
25.04382309142104
 20
-25.49096489156733
 30
0.0
  0
VERTEX
  5
316
  8
LAYER_1
 10
24.94962299132076
 20
-25.46291872030019
 30
0.0
  0
VERTEX
  5
317
  8
LAYER_1
 10
24.85154910496804
 20
-25.42077536547021
 30
0.0
  0
VERTEX
  5
318
  8
LAYER_1
 10
24.74258104386647
 20
-25.36197203763989
 30
0.0
  0
VERTEX
  5
319
  8
LAYER_1
 10
24.46388084343113
 20
-25.18413430522844
 30
0.0
  0
VERTEX
  5
31A
  8
LAYER_1
 10
23.87224875351148
 20
-24.79757501747795
 30
0.0
  0
VERTEX
  5
31B
  8
LAYER_1
 10
23.15387534853379
 20
-24.33956995602254
 30
0.0
  0
VERTEX
  5
31C
  8
LAYER_1
 10
22.34524676465115
 20
-23.83068684359542
 30
0.0
  0
VERTEX
  5
31D
  8
LAYER_1
 10
22.06637530532042
 20
-23.73411697936344
 30
0.0
  0
VERTEX
  5
31E
  8
LAYER_1
 10
21.94034083954669
 20
-23.69999197261044
 30
0.0
  0
VERTEX
  5
31F
  8
LAYER_1
 10
21.80332858454177
 20
-23.67846494915646
 30
0.0
  0
VERTEX
  5
320
  8
LAYER_1
 10
21.67187182285833
 20
-23.6713026972219
 30
0.0
  0
VERTEX
  5
321
  8
LAYER_1
 10
21.56250383704901
 20
-23.68027200502716
 30
0.0
  0
VERTEX
  5
322
  8
LAYER_1
 10
21.33750382810831
 20
-23.72299689492288
 30
0.0
  0
VERTEX
  5
323
  8
LAYER_1
 10
18.78750372678041
 20
-24.68734489894364
 30
0.0
  0
VERTEX
  5
324
  8
LAYER_1
 10
18.65612471737334
 20
-24.80541226888347
 30
0.0
  0
VERTEX
  5
325
  8
LAYER_1
 10
18.5777833218191
 20
-24.86540019513578
 30
0.0
  0
VERTEX
  5
326
  8
LAYER_1
 10
18.5422176699979
 20
-24.87951557573626
 30
0.0
  0
VERTEX
  5
327
  8
LAYER_1
 10
18.50455708897979
 20
-24.88279707292515
 30
0.0
  0
VERTEX
  5
328
  8
LAYER_1
 10
18.46142785888912
 20
-24.8750585654066
 30
0.0
  0
VERTEX
  5
329
  8
LAYER_1
 10
18.40945625985028
 20
-24.85611393188479
 30
0.0
  0
VERTEX
  5
32A
  8
LAYER_1
 10
18.26549107542547
 20
-24.7838618016479
 30
0.0
  0
VERTEX
  5
32B
  8
LAYER_1
 10
18.1663059775066
 20
-24.73353541434197
 30
0.0
  0
VERTEX
  5
32C
  8
LAYER_1
 10
18.07915516675726
 20
-24.70265628547965
 30
0.0
  0
VERTEX
  5
32D
  8
LAYER_1
 10
17.99204816689876
 20
-24.69495172461168
 30
0.0
  0
VERTEX
  5
32E
  8
LAYER_1
 10
17.89299450165243
 20
-24.71414904128884
 30
0.0
  0
VERTEX
  5
32F
  8
LAYER_1
 10
17.7700036947396
 20
-24.76397554506186
 30
0.0
  0
VERTEX
  5
330
  8
LAYER_1
 10
17.61108526988159
 20
-24.84815854548152
 30
0.0
  0
VERTEX
  5
331
  8
LAYER_1
 10
17.13750366121531
 20
-25.13450327446375
 30
0.0
  0
VERTEX
  5
332
  8
LAYER_1
 10
16.87024036173131
 20
-25.31092423081993
 30
0.0
  0
VERTEX
  5
333
  8
LAYER_1
 10
16.78508283176585
 20
-25.3799954219488
 30
0.0
  0
VERTEX
  5
334
  8
LAYER_1
 10
16.72899890607896
 20
-25.44072060877968
 30
0.0
  0
VERTEX
  5
335
  8
LAYER_1
 10
16.69955672799129
 20
-25.49640993161368
 30
0.0
  0
VERTEX
  5
336
  8
LAYER_1
 10
16.69432444082347
 20
-25.55037353075193
 30
0.0
  0
VERTEX
  5
337
  8
LAYER_1
 10
16.71087018789618
 20
-25.60592154649554
 30
0.0
  0
VERTEX
  5
338
  8
LAYER_1
 10
16.74676211253005
 20
-25.66636411914563
 30
0.0
  0
VERTEX
  5
339
  8
LAYER_1
 10
16.83750364929438
 20
-25.79611325784014
 30
0.0
  0
VERTEX
  5
33A
  8
LAYER_1
 10
18.92178967938563
 20
-27.44293015258511
 30
0.0
  0
VERTEX
  5
33B
  8
LAYER_1
 10
19.42961777822821
 20
-27.55843319787655
 30
0.0
  0
VERTEX
  5
33C
  8
LAYER_1
 10
19.68751378815205
 20
-27.61912555815338
 30
0.0
  0
VERTEX
  5
33D
  8
LAYER_1
 10
19.89221702498018
 20
-27.67353679292346
 30
0.0
  0
VERTEX
  5
33E
  8
LAYER_1
 10
20.05211947932497
 20
-27.7261961102067
 30
0.0
  0
VERTEX
  5
33F
  8
LAYER_1
 10
20.17561314179879
 20
-27.78163271802302
 30
0.0
  0
VERTEX
  5
340
  8
LAYER_1
 10
20.271090003014
 20
-27.84437582439234
 30
0.0
  0
VERTEX
  5
341
  8
LAYER_1
 10
20.34694205358298
 20
-27.91895463733459
 30
0.0
  0
VERTEX
  5
342
  8
LAYER_1
 10
20.41156128411809
 20
-28.00989836486967
 30
0.0
  0
VERTEX
  5
343
  8
LAYER_1
 10
20.47333968523171
 20
-28.12173621501752
 30
0.0
  0
VERTEX
  5
344
  8
LAYER_1
 10
20.53523949656284
 20
-28.25239950354255
 30
0.0
  0
VERTEX
  5
345
  8
LAYER_1
 10
20.58622608910805
 20
-28.38030280278707
 30
0.0
  0
VERTEX
  5
346
  8
LAYER_1
 10
20.6263049998561
 20
-28.50541559212952
 30
0.0
  0
VERTEX
  5
347
  8
LAYER_1
 10
20.65548176579575
 20
-28.6277073509483
 30
0.0
  0
VERTEX
  5
348
  8
LAYER_1
 10
20.67376192391578
 20
-28.74714755862184
 30
0.0
  0
VERTEX
  5
349
  8
LAYER_1
 10
20.68115101120495
 20
-28.86370569452853
 30
0.0
  0
VERTEX
  5
34A
  8
LAYER_1
 10
20.67765456465204
 20
-28.97735123804681
 30
0.0
  0
VERTEX
  5
34B
  8
LAYER_1
 10
20.66327812124579
 20
-29.08805366855509
 30
0.0
  0
VERTEX
  5
34C
  8
LAYER_1
 10
20.63802721797499
 20
-29.19578246543178
 30
0.0
  0
VERTEX
  5
34D
  8
LAYER_1
 10
20.6019073918284
 20
-29.30050710805529
 30
0.0
  0
VERTEX
  5
34E
  8
LAYER_1
 10
20.55492417979477
 20
-29.40219707580405
 30
0.0
  0
VERTEX
  5
34F
  8
LAYER_1
 10
20.4970831188629
 20
-29.50082184805647
 30
0.0
  0
VERTEX
  5
350
  8
LAYER_1
 10
20.42838974602152
 20
-29.59635090419096
 30
0.0
  0
VERTEX
  5
351
  8
LAYER_1
 10
20.34884959825943
 20
-29.68875372358595
 30
0.0
  0
VERTEX
  5
352
  8
LAYER_1
 10
20.25846821256538
 20
-29.77799978561984
 30
0.0
  0
VERTEX
  5
353
  8
LAYER_1
 10
20.15725112592813
 20
-29.86405856967105
 30
0.0
  0
VERTEX
  5
354
  8
LAYER_1
 10
19.99581430775608
 20
-29.97807466146629
 30
0.0
  0
VERTEX
  5
355
  8
LAYER_1
 10
19.91769281791291
 20
-30.02142528911698
 30
0.0
  0
VERTEX
  5
356
  8
LAYER_1
 10
19.83858941001723
 20
-30.05673769091207
 30
0.0
  0
VERTEX
  5
357
  8
LAYER_1
 10
19.75646918590822
 20
-30.0848119065833
 30
0.0
  0
VERTEX
  5
358
  8
LAYER_1
 10
19.66929724742506
 20
-30.10644797586245
 30
0.0
  0
VERTEX
  5
359
  8
LAYER_1
 10
19.4716586346931
 20
-30.13360583417151
 30
0.0
  0
VERTEX
  5
35A
  8
LAYER_1
 10
19.0860189529505
 20
-30.16558607665916
 30
0.0
  0
VERTEX
  5
35B
  8
LAYER_1
 10
16.08931770468295
 20
-29.23451263637637
 30
0.0
  0
VERTEX
  5
35C
  8
LAYER_1
 10
15.77448668486507
 20
-29.26999865433601
 30
0.0
  0
VERTEX
  5
35D
  8
LAYER_1
 10
15.68838134628622
 20
-29.28428600878925
 30
0.0
  0
VERTEX
  5
35E
  8
LAYER_1
 10
15.59881526060837
 20
-29.30854672521081
 30
0.0
  0
VERTEX
  5
35F
  8
LAYER_1
 10
15.50416838595608
 20
-29.34359222894424
 30
0.0
  0
VERTEX
  5
360
  8
LAYER_1
 10
15.40282068045389
 20
-29.39023394533307
 30
0.0
  0
VERTEX
  5
361
  8
LAYER_1
 10
15.17354260939806
 20
-29.52155171745112
 30
0.0
  0
VERTEX
  5
362
  8
LAYER_1
 10
14.89802071243733
 20
-29.70899144431333
 30
0.0
  0
VERTEX
  5
363
  8
LAYER_1
 10
13.71194463005514
 20
-30.55869428361871
 30
0.0
  0
VERTEX
  5
364
  8
LAYER_1
 10
13.08750350028276
 20
-31.00489035090641
 30
0.0
  0
VERTEX
  5
365
  8
LAYER_1
 10
13.03339008605631
 20
-31.08369430448033
 30
0.0
  0
VERTEX
  5
366
  8
LAYER_1
 10
12.91105142629819
 20
-31.26500567744324
 30
0.0
  0
VERTEX
  5
367
  8
LAYER_1
 10
12.88937253461675
 20
-31.29282482227642
 30
0.0
  0
VERTEX
  5
368
  8
LAYER_1
 10
12.86523005811136
 20
-31.31291461628567
 30
0.0
  0
VERTEX
  5
369
  8
LAYER_1
 10
12.83666956531082
 20
-31.32532449307801
 30
0.0
  0
VERTEX
  5
36A
  8
LAYER_1
 10
12.80173662474392
 20
-31.33010388626045
 30
0.0
  0
VERTEX
  5
36B
  8
LAYER_1
 10
12.70493567442625
 20
-31.31696895622371
 30
0.0
  0
VERTEX
  5
36C
  8
LAYER_1
 10
12.55919175538872
 20
-31.27390529503157
 30
0.0
  0
VERTEX
  5
36D
  8
LAYER_1
 10
12.27555733001094
 20
-31.18029749323092
 30
0.0
  0
VERTEX
  5
36E
  8
LAYER_1
 10
11.71236584451192
 20
-31.75640003343132
 30
0.0
  0
VERTEX
  5
36F
  8
LAYER_1
 10
11.39315767870441
 20
-32.08808945598879
 30
0.0
  0
VERTEX
  5
370
  8
LAYER_1
 10
11.29885217279701
 20
-32.1958434814241
 30
0.0
  0
VERTEX
  5
371
  8
LAYER_1
 10
11.24184666767522
 20
-32.27554097129044
 30
0.0
  0
VERTEX
  5
372
  8
LAYER_1
 10
11.21746687543011
 20
-32.33518486683279
 30
0.0
  0
VERTEX
  5
373
  8
LAYER_1
 10
11.22103850815271
 20
-32.38277810929614
 30
0.0
  0
VERTEX
  5
374
  8
LAYER_1
 10
11.24788727793408
 20
-32.42632363992547
 30
0.0
  0
VERTEX
  5
375
  8
LAYER_1
 10
11.29333889686527
 20
-32.47382439996575
 30
0.0
  0
VERTEX
  5
376
  8
LAYER_1
 10
11.43750343471766
 20
-32.61514622629978
 30
0.0
  0
VERTEX
  5
377
  8
LAYER_1
 10
13.76250352710485
 20
-33.63693803753676
 30
0.0
  0
VERTEX
  5
378
  8
LAYER_1
 10
14.51922713189147
 20
-33.63721819696934
 30
0.0
  0
VERTEX
  5
379
  8
LAYER_1
 10
14.80295323101221
 20
-33.63938077363073
 30
0.0
  0
VERTEX
  5
37A
  8
LAYER_1
 10
15.0245754985216
 20
-33.64944409621157
 30
0.0
  0
VERTEX
  5
37B
  8
LAYER_1
 10
15.1968204406707
 20
-33.67312588316547
 30
0.0
  0
VERTEX
  5
37C
  8
LAYER_1
 10
15.26840344793859
 20
-33.69186048779908
 30
0.0
  0
VERTEX
  5
37D
  8
LAYER_1
 10
15.33241456371054
 20
-33.71614385294608
 30
0.0
  0
VERTEX
  5
37E
  8
LAYER_1
 10
15.39044460126795
 20
-33.74669069341314
 30
0.0
  0
VERTEX
  5
37F
  8
LAYER_1
 10
15.4440843738922
 20
-33.78421572400701
 30
0.0
  0
VERTEX
  5
380
  8
LAYER_1
 10
15.54455637746671
 20
-33.8830592148019
 30
0.0
  0
VERTEX
  5
381
  8
LAYER_1
 10
15.64655708068513
 20
-34.0183920437844
 30
0.0
  0
VERTEX
  5
382
  8
LAYER_1
 10
15.7628129897985
 20
-34.19593192940812
 30
0.0
  0
VERTEX
  5
383
  8
LAYER_1
 10
15.82840753330262
 20
-34.30887600127205
 30
0.0
  0
VERTEX
  5
384
  8
LAYER_1
 10
15.88230182674171
 20
-34.42289981162359
 30
0.0
  0
VERTEX
  5
385
  8
LAYER_1
 10
15.92455429353455
 20
-34.53768420227527
 30
0.0
  0
VERTEX
  5
386
  8
LAYER_1
 10
15.95522335709994
 20
-34.65291001503961
 30
0.0
  0
VERTEX
  5
387
  8
LAYER_1
 10
15.9743674408567
 20
-34.76825809172914
 30
0.0
  0
VERTEX
  5
388
  8
LAYER_1
 10
15.9820449682236
 20
-34.88340927415638
 30
0.0
  0
VERTEX
  5
389
  8
LAYER_1
 10
15.97831436261945
 20
-34.99804440413388
 30
0.0
  0
VERTEX
  5
38A
  8
LAYER_1
 10
15.96323404746305
 20
-35.11184432347415
 30
0.0
  0
VERTEX
  5
38B
  8
LAYER_1
 10
15.93686244617319
 20
-35.22448987398973
 30
0.0
  0
VERTEX
  5
38C
  8
LAYER_1
 10
15.89925798216868
 20
-35.33566189749315
 30
0.0
  0
VERTEX
  5
38D
  8
LAYER_1
 10
15.85047907886831
 20
-35.44504123579693
 30
0.0
  0
VERTEX
  5
38E
  8
LAYER_1
 10
15.79058415969087
 20
-35.5523087307136
 30
0.0
  0
VERTEX
  5
38F
  8
LAYER_1
 10
15.71963164805517
 20
-35.65714522405569
 30
0.0
  0
VERTEX
  5
390
  8
LAYER_1
 10
15.63767996738
 20
-35.75923155763573
 30
0.0
  0
VERTEX
  5
391
  8
LAYER_1
 10
15.54478754108416
 20
-35.85824857326625
 30
0.0
  0
VERTEX
  5
392
  8
LAYER_1
 10
15.44101279258645
 20
-35.95387711275978
 30
0.0
  0
VERTEX
  5
393
  8
LAYER_1
 10
15.11250358074903
 20
-36.236151295874
 30
0.0
  0
VERTEX
  5
394
  8
LAYER_1
 10
11.3539448876014
 20
-36.18749845772982
 30
0.0
  0
VERTEX
  5
395
  8
LAYER_1
 10
10.8375034108758
 20
-36.54140191833193
 30
0.0
  0
VERTEX
  5
396
  8
LAYER_1
 10
9.187503345310688
 20
-38.6144248815
 30
0.0
  0
VERTEX
  5
397
  8
LAYER_1
 10
9.116775214260528
 20
-38.80721172549426
 30
0.0
  0
VERTEX
  5
398
  8
LAYER_1
 10
9.070082420966896
 20
-38.90438938384249
 30
0.0
  0
VERTEX
  5
399
  8
LAYER_1
 10
9.041649480841054
 20
-38.93805934824154
 30
0.0
  0
VERTEX
  5
39A
  8
LAYER_1
 10
9.007276509139299
 20
-38.96320933769061
 30
0.0
  0
VERTEX
  5
39B
  8
LAYER_1
 10
8.965051753919209
 20
-38.98090880336479
 30
0.0
  0
VERTEX
  5
39C
  8
LAYER_1
 10
8.913063463238364
 20
-38.99222719643913
 30
0.0
  0
VERTEX
  5
39D
  8
LAYER_1
 10
8.772149267724728
 20
-38.99999856948853
 30
0.0
  0
VERTEX
  5
39E
  8
LAYER_1
 10
8.66500317680065
 20
-39.00392709804856
 30
0.0
  0
VERTEX
  5
39F
  8
LAYER_1
 10
8.574528591358888
 20
-39.02011633556062
 30
0.0
  0
VERTEX
  5
3A0
  8
LAYER_1
 10
8.493844367815829
 20
-39.05517175977264
 30
0.0
  0
VERTEX
  5
3A1
  8
LAYER_1
 10
8.416069362587848
 20
-39.11569884843257
 30
0.0
  0
VERTEX
  5
3A2
  8
LAYER_1
 10
8.33432243209133
 20
-39.20830307928835
 30
0.0
  0
VERTEX
  5
3A3
  8
LAYER_1
 10
8.241722432742659
 20
-39.33958993008791
 30
0.0
  0
VERTEX
  5
3A4
  8
LAYER_1
 10
7.996438653154371
 20
-39.74463340251017
 30
0.0
  0
VERTEX
  5
3A5
  8
LAYER_1
 10
7.887017320959835
 20
-39.94390819361141
 30
0.0
  0
VERTEX
  5
3A6
  8
LAYER_1
 10
7.810258129089632
 20
-40.11195204111279
 30
0.0
  0
VERTEX
  5
3A7
  8
LAYER_1
 10
7.766294049877111
 20
-40.2512082999062
 30
0.0
  0
VERTEX
  5
3A8
  8
LAYER_1
 10
7.756651731371651
 20
-40.31080463194112
 30
0.0
  0
VERTEX
  5
3A9
  8
LAYER_1
 10
7.755258055655615
 20
-40.36412032488354
 30
0.0
  0
VERTEX
  5
3AA
  8
LAYER_1
 10
7.762129644270674
 20
-40.41146079809491
 30
0.0
  0
VERTEX
  5
3AB
  8
LAYER_1
 10
7.777283118758495
 20
-40.45313147093673
 30
0.0
  0
VERTEX
  5
3AC
  8
LAYER_1
 10
7.800735100660747
 20
-40.48943776277048
 30
0.0
  0
VERTEX
  5
3AD
  8
LAYER_1
 10
7.832502211519097
 20
-40.52068509295765
 30
0.0
  0
VERTEX
  5
3AE
  8
LAYER_1
 10
7.872601072875216
 20
-40.54717888085973
 30
0.0
  0
VERTEX
  5
3AF
  8
LAYER_1
 10
7.921048306270769
 20
-40.56922454583822
 30
0.0
  0
VERTEX
  5
3B0
  8
LAYER_1
 10
8.043054375346856
 20
-40.60119318447036
 30
0.0
  0
VERTEX
  5
3B1
  8
LAYER_1
 10
8.287503309547901
 20
-40.64434361047824
 30
0.0
  0
VERTEX
  5
3B2
  8
LAYER_1
 10
10.62131052362783
 20
-40.970621468598
 30
0.0
  0
VERTEX
  5
3B3
  8
LAYER_1
 10
11.95137875396512
 20
-40.57620231564977
 30
0.0
  0
VERTEX
  5
3B4
  8
LAYER_1
 10
12.27314969316274
 20
-40.76477264557296
 30
0.0
  0
VERTEX
  5
3B5
  8
LAYER_1
 10
12.38606217269809
 20
-40.83548619041541
 30
0.0
  0
VERTEX
  5
3B6
  8
LAYER_1
 10
12.49003844146291
 20
-40.9099928254585
 30
0.0
  0
VERTEX
  5
3B7
  8
LAYER_1
 10
12.58502631047505
 20
-40.98817977999074
 30
0.0
  0
VERTEX
  5
3B8
  8
LAYER_1
 10
12.67097359075236
 20
-41.0699342833006
 30
0.0
  0
VERTEX
  5
3B9
  8
LAYER_1
 10
12.7478280933127
 20
-41.15514356467657
 30
0.0
  0
VERTEX
  5
3BA
  8
LAYER_1
 10
12.81553762917394
 20
-41.24369485340716
 30
0.0
  0
VERTEX
  5
3BB
  8
LAYER_1
 10
12.87405000935392
 20
-41.33547537878085
 30
0.0
  0
VERTEX
  5
3BC
  8
LAYER_1
 10
12.92331304487051
 20
-41.43037237008613
 30
0.0
  0
VERTEX
  5
3BD
  8
LAYER_1
 10
12.96327454674156
 20
-41.52827305661149
 30
0.0
  0
VERTEX
  5
3BE
  8
LAYER_1
 10
12.99388232598494
 20
-41.62906466764542
 30
0.0
  0
VERTEX
  5
3BF
  8
LAYER_1
 10
13.01508419361851
 20
-41.73263443247643
 30
0.0
  0
VERTEX
  5
3C0
  8
LAYER_1
 10
13.02682796066011
 20
-41.83886958039297
 30
0.0
  0
VERTEX
  5
3C1
  8
LAYER_1
 10
13.0290614381276
 20
-41.94765734068356
 30
0.0
  0
VERTEX
  5
3C2
  8
LAYER_1
 10
13.02173243703886
 20
-42.05888494263669
 30
0.0
  0
VERTEX
  5
3C3
  8
LAYER_1
 10
13.00478876841172
 20
-42.17243961554085
 30
0.0
  0
VERTEX
  5
3C4
  8
LAYER_1
 10
12.97817824326407
 20
-42.28820858868453
 30
0.0
  0
VERTEX
  5
3C5
  8
LAYER_1
 10
12.91744555615335
 20
-42.46541983953473
 30
0.0
  0
VERTEX
  5
3C6
  8
LAYER_1
 10
12.83453531290187
 20
-42.63077212624648
 30
0.0
  0
VERTEX
  5
3C7
  8
LAYER_1
 10
12.73078969871935
 20
-42.7829489642797
 30
0.0
  0
VERTEX
  5
3C8
  8
LAYER_1
 10
12.60755089881554
 20
-42.9206338690943
 30
0.0
  0
VERTEX
  5
3C9
  8
LAYER_1
 10
12.46616109840017
 20
-43.04251035615017
 30
0.0
  0
VERTEX
  5
3CA
  8
LAYER_1
 10
12.30796248268295
 20
-43.14726194090726
 30
0.0
  0
VERTEX
  5
3CB
  8
LAYER_1
 10
12.13429723687363
 20
-43.23357213882544
 30
0.0
  0
VERTEX
  5
3CC
  8
LAYER_1
 10
11.94650754618193
 20
-43.30012446536465
 30
0.0
  0
VERTEX
  5
3CD
  8
LAYER_1
 10
11.51250343769789
 20
-43.42566697579923
 30
0.0
  0
VERTEX
  5
3CE
  8
LAYER_1
 10
9.337503351271152
 20
-43.88789550875792
 30
0.0
  0
VERTEX
  5
3CF
  8
LAYER_1
 10
9.037503339350224
 20
-44.02055865283666
 30
0.0
  0
VERTEX
  5
3D0
  8
LAYER_1
 10
8.910894428203504
 20
-44.08349460235514
 30
0.0
  0
VERTEX
  5
3D1
  8
LAYER_1
 10
8.787937005675763
 20
-44.15678593030368
 30
0.0
  0
VERTEX
  5
3D2
  8
LAYER_1
 10
8.682685023383483
 20
-44.23132849656938
 30
0.0
  0
VERTEX
  5
3D3
  8
LAYER_1
 10
8.609192432943146
 20
-44.29801816103935
 30
0.0
  0
VERTEX
  5
3D4
  8
LAYER_1
 10
8.480881538456998
 20
-44.44281452516331
 30
0.0
  0
VERTEX
  5
3D5
  8
LAYER_1
 10
8.169729954029947
 20
-45.15265668367154
 30
0.0
  0
VERTEX
  5
3D6
  8
LAYER_1
 10
7.604290820948961
 20
-46.43443845864568
 30
0.0
  0
VERTEX
  5
3D7
  8
LAYER_1
 10
7.505555733698169
 20
-46.67177329831195
 30
0.0
  0
VERTEX
  5
3D8
  8
LAYER_1
 10
7.424700239712104
 20
-46.89518556854797
 30
0.0
  0
VERTEX
  5
3D9
  8
LAYER_1
 10
7.370068149180977
 20
-47.07956217158613
 30
0.0
  0
VERTEX
  5
3DA
  8
LAYER_1
 10
7.350003272294998
 20
-47.19979000965881
 30
0.0
  0
VERTEX
  5
3DB
  8
LAYER_1
 10
7.339817801180283
 20
-47.30024205703195
 30
0.0
  0
VERTEX
  5
3DC
  8
LAYER_1
 10
7.32470553677167
 20
-47.33689995784599
 30
0.0
  0
VERTEX
  5
3DD
  8
LAYER_1
 10
7.300797652670916
 20
-47.36645645277362
 30
0.0
  0
VERTEX
  5
3DE
  8
LAYER_1
 10
7.266507198534541
 20
-47.39036954883635
 30
0.0
  0
VERTEX
  5
3DF
  8
LAYER_1
 10
7.220247224019067
 20
-47.41009725305562
 30
0.0
  0
VERTEX
  5
3E0
  8
LAYER_1
 10
7.085470912476907
 20
-47.44282851404972
 30
0.0
  0
VERTEX
  5
3E1
  8
LAYER_1
 10
6.979714183071605
 20
-47.46649975167319
 30
0.0
  0
VERTEX
  5
3E2
  8
LAYER_1
 10
6.894676923231653
 20
-47.49879881067697
 30
0.0
  0
VERTEX
  5
3E3
  8
LAYER_1
 10
6.825279973968714
 20
-47.54795730620086
 30
0.0
  0
VERTEX
  5
3E4
  8
LAYER_1
 10
6.766444176294444
 20
-47.62220685338464
 30
0.0
  0
VERTEX
  5
3E5
  8
LAYER_1
 10
6.713090371220506
 20
-47.72977906736806
 30
0.0
  0
VERTEX
  5
3E6
  8
LAYER_1
 10
6.660139399758561
 20
-47.87890556329093
 30
0.0
  0
VERTEX
  5
3E7
  8
LAYER_1
 10
6.535129321717292
 20
-48.33474786151412
 30
0.0
  0
VERTEX
  5
3E8
  8
LAYER_1
 10
6.486890429467294
 20
-48.54070547798938
 30
0.0
  0
VERTEX
  5
3E9
  8
LAYER_1
 10
6.455142914593443
 20
-48.71794493479139
 30
0.0
  0
VERTEX
  5
3EA
  8
LAYER_1
 10
6.439921616722928
 20
-48.8668537078547
 30
0.0
  0
VERTEX
  5
3EB
  8
LAYER_1
 10
6.441261375482938
 20
-48.98781927311386
 30
0.0
  0
VERTEX
  5
3EC
  8
LAYER_1
 10
6.459197030500663
 20
-49.08122910650344
 30
0.0
  0
VERTEX
  5
3ED
  8
LAYER_1
 10
6.493763421403292
 20
-49.14747068395796
 30
0.0
  0
VERTEX
  5
3EE
  8
LAYER_1
 10
6.517294030194942
 20
-49.17052446293912
 30
0.0
  0
VERTEX
  5
3EF
  8
LAYER_1
 10
6.544995387818014
 20
-49.186931481412
 30
0.0
  0
VERTEX
  5
3F0
  8
LAYER_1
 10
6.612927769372021
 20
-49.19999897480011
 30
0.0
  0
VERTEX
  5
3F1
  8
LAYER_1
 10
6.695574735248698
 20
-49.19999897480011
 30
0.0
  0
VERTEX
  5
3F2
  8
LAYER_1
 10
9.337503351271152
 20
-48.88922262305002
 30
0.0
  0
VERTEX
  5
3F3
  8
LAYER_1
 10
9.734629281817845
 20
-48.65086078327884
 30
0.0
  0
VERTEX
  5
3F4
  8
LAYER_1
 10
10.28328494564928
 20
-48.32241761480309
 30
0.0
  0
VERTEX
  5
3F5
  8
LAYER_1
 10
10.4517366467728
 20
-48.23053556275505
 30
0.0
  0
VERTEX
  5
3F6
  8
LAYER_1
 10
10.57473139277653
 20
-48.17903259419364
 30
0.0
  0
VERTEX
  5
3F7
  8
LAYER_1
 10
10.67111453271675
 20
-48.16202325563889
 30
0.0
  0
VERTEX
  5
3F8
  8
LAYER_1
 10
10.75973141564972
 20
-48.17362209361086
 30
0.0
  0
VERTEX
  5
3F9
  8
LAYER_1
 10
10.8594273906317
 20
-48.20794365462959
 30
0.0
  0
VERTEX
  5
3FA
  8
LAYER_1
 10
10.98904780671897
 20
-48.25910248521511
 30
0.0
  0
VERTEX
  5
3FB
  8
LAYER_1
 10
11.1508024850692
 20
-48.33254066038421
 30
0.0
  0
VERTEX
  5
3FC
  8
LAYER_1
 10
11.32584295503094
 20
-48.43114627992257
 30
0.0
  0
VERTEX
  5
3FD
  8
LAYER_1
 10
11.49308993107318
 20
-48.5420189229673
 30
0.0
  0
VERTEX
  5
3FE
  8
LAYER_1
 10
11.63146412766486
 20
-48.65225816865552
 30
0.0
  0
VERTEX
  5
3FF
  8
LAYER_1
 10
11.77516151238334
 20
-48.79623481300082
 30
0.0
  0
VERTEX
  5
400
  8
LAYER_1
 10
11.8283313662361
 20
-48.86447734176316
 30
0.0
  0
VERTEX
  5
401
  8
LAYER_1
 10
11.87136018749683
 20
-48.93454513123881
 30
0.0
  0
VERTEX
  5
402
  8
LAYER_1
 10
11.90598162097475
 20
-49.00968002366788
 30
0.0
  0
VERTEX
  5
403
  8
LAYER_1
 10
11.93392931147908
 20
-49.09312386129051
 30
0.0
  0
VERTEX
  5
404
  8
LAYER_1
 10
11.97673804280385
 20
-49.29790574107702
 30
0.0
  0
VERTEX
  5
405
  8
LAYER_1
 10
12.03859043465542
 20
-49.68749899417162
 30
0.0
  0
SEQEND
  5
9E5
  8
LAYER_1
  0
POLYLINE
  5
73
  8
LAYER_1
 66
     1
 10
0.0
 20
0.0
 30
0.0
 70
     1
  0
VERTEX
  5
406
  8
LAYER_1
 10
34.85952393336595
 20
-10.46249743551016
 30
0.0
  0
VERTEX
  5
407
  8
LAYER_1
 10
35.10003357355416
 20
-10.74374744668603
 30
0.0
  0
VERTEX
  5
408
  8
LAYER_1
 10
35.20496235761198
 20
-10.85295155258791
 30
0.0
  0
VERTEX
  5
409
  8
LAYER_1
 10
35.31286695766497
 20
-10.94238026707899
 30
0.0
  0
VERTEX
  5
40A
  8
LAYER_1
 10
35.41105542526525
 20
-11.00280507416755
 30
0.0
  0
VERTEX
  5
40B
  8
LAYER_1
 10
35.45253987550567
 20
-11.01925710118849
 30
0.0
  0
VERTEX
  5
40C
  8
LAYER_1
 10
35.48683581196497
 20
-11.0249974578619
 30
0.0
  0
VERTEX
  5
40D
  8
LAYER_1
 10
35.63312841018757
 20
-11.0249974578619
 30
0.0
  0
VERTEX
  5
40E
  8
LAYER_1
 10
36.32281643058219
 20
-10.83442257503567
 30
0.0
  0
VERTEX
  5
40F
  8
LAYER_1
 10
36.91688080556143
 20
-10.65461296980814
 30
0.0
  0
VERTEX
  5
410
  8
LAYER_1
 10
37.52894914906997
 20
-10.43935895902751
 30
0.0
  0
VERTEX
  5
411
  8
LAYER_1
 10
38.15220813849248
 20
-10.1918113552459
 30
0.0
  0
VERTEX
  5
412
  8
LAYER_1
 10
38.77984445121357
 20
-9.915120971015435
 30
0.0
  0
VERTEX
  5
413
  8
LAYER_1
 10
39.40504476461788
 20
-9.612438618888241
 30
0.0
  0
VERTEX
  5
414
  8
LAYER_1
 10
40.02099575609002
 20
-9.28691511141644
 30
0.0
  0
VERTEX
  5
415
  8
LAYER_1
 10
40.62088410301463
 20
-8.94170126115215
 30
0.0
  0
VERTEX
  5
416
  8
LAYER_1
 10
41.19789648277636
 20
-8.579947880647495
 30
0.0
  0
VERTEX
  5
417
  8
LAYER_1
 10
41.59746034806796
 20
-8.308886131327288
 30
0.0
  0
VERTEX
  5
418
  8
LAYER_1
 10
42.03211955701232
 20
-7.997074603134091
 30
0.0
  0
VERTEX
  5
419
  8
LAYER_1
 10
42.49179246199397
 20
-7.652496940100841
 30
0.0
  0
VERTEX
  5
41A
  8
LAYER_1
 10
42.96639741539747
 20
-7.283136786260469
 30
0.0
  0
VERTEX
  5
41B
  8
LAYER_1
 10
43.44585276960737
 20
-6.896977785645909
 30
0.0
  0
VERTEX
  5
41C
  8
LAYER_1
 10
43.92007687700823
 20
-6.502003582290095
 30
0.0
  0
VERTEX
  5
41D
  8
LAYER_1
 10
44.37898808998459
 20
-6.106197820225959
 30
0.0
  0
VERTEX
  5
41E
  8
LAYER_1
 10
44.812504760921
 20
-5.717544143486435
 30
0.0
  0
VERTEX
  5
41F
  8
LAYER_1
 10
45.71250479668379
 20
-4.893092127318951
 30
0.0
  0
VERTEX
  5
420
  8
LAYER_1
 10
46.30800946158966
 20
-4.272372975550994
 30
0.0
  0
VERTEX
  5
421
  8
LAYER_1
 10
44.1277660287482
 20
-2.062497101724148
 30
0.0
  0
VERTEX
  5
422
  8
LAYER_1
 10
41.66116846389697
 20
0.4875029996037483
 30
0.0
  0
VERTEX
  5
423
  8
LAYER_1
 10
36.82953567107702
 20
5.475003197789192
 30
0.0
  0
VERTEX
  5
424
  8
LAYER_1
 10
34.46450044310831
 20
7.91250329464674
 30
0.0
  0
VERTEX
  5
425
  8
LAYER_1
 10
32.58750427514315
 20
9.847921045526647
 30
0.0
  0
VERTEX
  5
426
  8
LAYER_1
 10
32.36250426620245
 20
10.09040386334306
 30
0.0
  0
VERTEX
  5
427
  8
LAYER_1
 10
30.56927391950249
 20
11.96250345557928
 30
0.0
  0
VERTEX
  5
428
  8
LAYER_1
 10
24.13340122391234
 20
18.5215662449822
 30
0.0
  0
VERTEX
  5
429
  8
LAYER_1
 10
23.48545255581266
 20
18.8758945101557
 30
0.0
  0
VERTEX
  5
42A
  8
LAYER_1
 10
22.70838567127332
 20
19.28585132272519
 30
0.0
  0
VERTEX
  5
42B
  8
LAYER_1
 10
21.75000384449959
 20
19.773924818872
 30
0.0
  0
VERTEX
  5
42C
  8
LAYER_1
 10
20.66250380128622
 20
20.31762686241477
 30
0.0
  0
VERTEX
  5
42D
  8
LAYER_1
 10
20.25000378489494
 20
20.55383856720589
 30
0.0
  0
VERTEX
  5
42E
  8
LAYER_1
 10
19.80657325240599
 20
20.81758378112202
 30
0.0
  0
VERTEX
  5
42F
  8
LAYER_1
 10
19.33626909159123
 20
21.11493538287356
 30
0.0
  0
VERTEX
  5
430
  8
LAYER_1
 10
18.85471164044766
 20
21.43481017097836
 30
0.0
  0
VERTEX
  5
431
  8
LAYER_1
 10
18.3775212369723
 20
21.76612494395427
 30
0.0
  0
VERTEX
  5
432
  8
LAYER_1
 10
17.92031821916213
 20
22.09779650031916
 30
0.0
  0
VERTEX
  5
433
  8
LAYER_1
 10
17.49872292501417
 20
22.41874163859089
 30
0.0
  0
VERTEX
  5
434
  8
LAYER_1
 10
17.12835569252543
 20
22.7178771572873
 30
0.0
  0
VERTEX
  5
435
  8
LAYER_1
 10
16.82483685969291
 20
22.98411985492625
 30
0.0
  0
VERTEX
  5
436
  8
LAYER_1
 10
16.55383786750308
 20
23.22249317971895
 30
0.0
  0
VERTEX
  5
437
  8
LAYER_1
 10
16.45964664503563
 20
23.29549271594416
 30
0.0
  0
VERTEX
  5
438
  8
LAYER_1
 10
16.41109545797818
 20
23.3228800750898
 30
0.0
  0
VERTEX
  5
439
  8
LAYER_1
 10
16.35968728156313
 20
23.32500390708447
 30
0.0
  0
VERTEX
  5
43A
  8
LAYER_1
 10
14.84375165149969
 20
24.99320894728717
 30
0.0
  0
VERTEX
  5
43B
  8
LAYER_1
 10
14.47138142183553
 20
25.48141148616965
 30
0.0
  0
VERTEX
  5
43C
  8
LAYER_1
 10
14.73069764351122
 20
25.87516316931077
 30
0.0
  0
VERTEX
  5
43D
  8
LAYER_1
 10
14.83251841558018
 20
26.04177773145413
 30
0.0
  0
VERTEX
  5
43E
  8
LAYER_1
 10
14.91497936800723
 20
26.20290599049955
 30
0.0
  0
VERTEX
  5
43F
  8
LAYER_1
 10
14.97802440997666
 20
26.35830519404587
 30
0.0
  0
VERTEX
  5
440
  8
LAYER_1
 10
15.02159745067276
 20
26.50773258969188
 30
0.0
  0
VERTEX
  5
441
  8
LAYER_1
 10
15.04564239927981
 20
26.65094542503642
 30
0.0
  0
VERTEX
  5
442
  8
LAYER_1
 10
15.05010316498211
 20
26.78770094767829
 30
0.0
  0
VERTEX
  5
443
  8
LAYER_1
 10
15.03492365696393
 20
26.9177564052163
 30
0.0
  0
VERTEX
  5
444
  8
LAYER_1
 10
15.00004778440957
 20
27.04086904524928
 30
0.0
  0
VERTEX
  5
445
  8
LAYER_1
 10
14.91710587593731
 20
27.26250406354666
 30
0.0
  0
VERTEX
  5
446
  8
LAYER_1
 10
13.76250352710485
 20
28.43590607682944
 30
0.0
  0
VERTEX
  5
447
  8
LAYER_1
 10
13.55997801357353
 20
28.5429550977552
 30
0.0
  0
VERTEX
  5
448
  8
LAYER_1
 10
13.46076034212886
 20
28.58452022541152
 30
0.0
  0
VERTEX
  5
449
  8
LAYER_1
 10
13.34032669368082
 20
28.61855846878401
 30
0.0
  0
VERTEX
  5
44A
  8
LAYER_1
 10
13.21388079406335
 20
28.64155728187353
 30
0.0
  0
VERTEX
  5
44B
  8
LAYER_1
 10
13.0966263691104
 20
28.65000411868095
 30
0.0
  0
VERTEX
  5
44C
  8
LAYER_1
 10
12.83580023817861
 20
28.65000411868095
 30
0.0
  0
VERTEX
  5
44D
  8
LAYER_1
 10
12.67312520373036
 20
29.38125414773822
 30
0.0
  0
VERTEX
  5
44E
  8
LAYER_1
 10
12.5054542293187
 20
30.1080438404025
 30
0.0
  0
VERTEX
  5
44F
  8
LAYER_1
 10
12.34961783238625
 20
30.7193484453684
 30
0.0
  0
VERTEX
  5
450
  8
LAYER_1
 10
12.19908162097585
 20
31.23186453771963
 30
0.0
  0
VERTEX
  5
451
  8
LAYER_1
 10
12.04731120313033
 20
31.66228869253991
 30
0.0
  0
VERTEX
  5
452
  8
LAYER_1
 10
11.9689211693078
 20
31.8519339730896
 30
0.0
  0
VERTEX
  5
453
  8
LAYER_1
 10
11.88777218689254
 20
32.02731748491295
 30
0.0
  0
VERTEX
  5
454
  8
LAYER_1
 10
11.80304745688993
 20
32.19052629989542
 30
0.0
  0
VERTEX
  5
455
  8
LAYER_1
 10
11.71393018030532
 20
32.34364748992247
 30
0.0
  0
VERTEX
  5
456
  8
LAYER_1
 10
11.61960355814405
 20
32.48876812687957
 30
0.0
  0
VERTEX
  5
457
  8
LAYER_1
 10
11.51925079141149
 20
32.62797528265219
 30
0.0
  0
VERTEX
  5
458
  8
LAYER_1
 10
11.29719962825389
 20
32.89699743818582
 30
0.0
  0
VERTEX
  5
459
  8
LAYER_1
 10
11.05688357801292
 20
33.1492427776474
 30
0.0
  0
VERTEX
  5
45A
  8
LAYER_1
 10
10.93328177457627
 20
33.2636152407247
 30
0.0
  0
VERTEX
  5
45B
  8
LAYER_1
 10
10.80355848021587
 20
33.37215618217142
 30
0.0
  0
VERTEX
  5
45C
  8
LAYER_1
 10
10.66484446589698
 20
33.47636706409143
 30
0.0
  0
VERTEX
  5
45D
  8
LAYER_1
 10
10.51427050258488
 20
33.57774934858851
 30
0.0
  0
VERTEX
  5
45E
  8
LAYER_1
 10
10.34896736124483
 20
33.67780449776653
 30
0.0
  0
VERTEX
  5
45F
  8
LAYER_1
 10
10.1660658128421
 20
33.77803397372929
 30
0.0
  0
VERTEX
  5
460
  8
LAYER_1
 10
9.735990578709696
 20
33.98502175442439
 30
0.0
  0
VERTEX
  5
461
  8
LAYER_1
 10
9.201090967909803
 20
34.21072438750443
 30
0.0
  0
VERTEX
  5
462
  8
LAYER_1
 10
8.538413148164572
 20
34.46715356980005
 30
0.0
  0
VERTEX
  5
463
  8
LAYER_1
 10
7.725003287196159
 20
34.76632099814188
 30
0.0
  0
VERTEX
  5
464
  8
LAYER_1
 10
7.483749681340217
 20
34.85681025986505
 30
0.0
  0
VERTEX
  5
465
  8
LAYER_1
 10
7.272539231532111
 20
34.94340632841519
 30
0.0
  0
VERTEX
  5
466
  8
LAYER_1
 10
7.086259711768307
 20
35.02899630206512
 30
0.0
  0
VERTEX
  5
467
  8
LAYER_1
 10
6.919798896045272
 20
35.1164672790877
 30
0.0
  0
VERTEX
  5
468
  8
LAYER_1
 10
6.768044558359469
 20
35.20870635775576
 30
0.0
  0
VERTEX
  5
469
  8
LAYER_1
 10
6.625884472707362
 20
35.30860063634215
 30
0.0
  0
VERTEX
  5
46A
  8
LAYER_1
 10
6.488206413085418
 20
35.4190372131197
 30
0.0
  0
VERTEX
  5
46B
  8
LAYER_1
 10
6.349898153490102
 20
35.54290318636126
 30
0.0
  0
VERTEX
  5
46C
  8
LAYER_1
 10
6.200421420555349
 20
35.69227527523725
 30
0.0
  0
VERTEX
  5
46D
  8
LAYER_1
 10
6.078294559175271
 20
35.83792138794992
 30
0.0
  0
VERTEX
  5
46E
  8
LAYER_1
 10
5.980321451871357
 20
35.9879478082343
 30
0.0
  0
VERTEX
  5
46F
  8
LAYER_1
 10
5.903305981165097
 20
36.15046081982537
 30
0.0
  0
VERTEX
  5
470
  8
LAYER_1
 10
5.844052029577981
 20
36.33356670645817
 30
0.0
  0
VERTEX
  5
471
  8
LAYER_1
 10
5.7993634796315
 20
36.54537175186771
 30
0.0
  0
VERTEX
  5
472
  8
LAYER_1
 10
5.766044213847143
 20
36.793982239789
 30
0.0
  0
VERTEX
  5
473
  8
LAYER_1
 10
5.7408981147464
 20
37.08750445395708
 30
0.0
  0
VERTEX
  5
474
  8
LAYER_1
 10
5.694359808163307
 20
37.68509166534809
 30
0.0
  0
VERTEX
  5
475
  8
LAYER_1
 10
5.647178924955083
 20
38.0917733388104
 30
0.0
  0
VERTEX
  5
476
  8
LAYER_1
 10
5.620082654164293
 20
38.24491561500629
 30
0.0
  0
VERTEX
  5
477
  8
LAYER_1
 10
5.58890790367451
 20
38.37600072614561
 30
0.0
  0
VERTEX
  5
478
  8
LAYER_1
 10
5.509099182874365
 20
38.60622507915534
 30
0.0
  0
VERTEX
  5
479
  8
LAYER_1
 10
5.403377565358233
 20
38.82488286625116
 30
0.0
  0
VERTEX
  5
47A
  8
LAYER_1
 10
5.342921168171591
 20
38.92542892709817
 30
0.0
  0
VERTEX
  5
47B
  8
LAYER_1
 10
5.277138463449155
 20
39.02032298316727
 30
0.0
  0
VERTEX
  5
47C
  8
LAYER_1
 10
5.205832514753371
 20
39.10971744722545
 30
0.0
  0
VERTEX
  5
47D
  8
LAYER_1
 10
5.128806385646682
 20
39.19376473203972
 30
0.0
  0
VERTEX
  5
47E
  8
LAYER_1
 10
5.045863139691531
 20
39.27261725037708
 30
0.0
  0
VERTEX
  5
47F
  8
LAYER_1
 10
4.956805840450363
 20
39.34642741500455
 30
0.0
  0
VERTEX
  5
480
  8
LAYER_1
 10
4.86143755148562
 20
39.41534763868913
 30
0.0
  0
VERTEX
  5
481
  8
LAYER_1
 10
4.759561336359748
 20
39.47953033419782
 30
0.0
  0
VERTEX
  5
482
  8
LAYER_1
 10
4.535497381874388
 20
39.59429279175558
 30
0.0
  0
VERTEX
  5
483
  8
LAYER_1
 10
4.283038485493829
 20
39.69193408981387
 30
0.0
  0
VERTEX
  5
484
  8
LAYER_1
 10
4.000609155717626
 20
39.77367353050874
 30
0.0
  0
VERTEX
  5
485
  8
LAYER_1
 10
3.643896281621466
 20
39.86250456422567
 30
0.0
  0
VERTEX
  5
486
  8
LAYER_1
 10
3.078090508874212
 20
41.36250462383032
 30
0.0
  0
VERTEX
  5
487
  8
LAYER_1
 10
2.445693893571658
 20
42.63750467449427
 30
0.0
  0
VERTEX
  5
488
  8
LAYER_1
 10
2.231319501604179
 20
43.06031406330261
 30
0.0
  0
VERTEX
  5
489
  8
LAYER_1
 10
2.012200802884483
 20
43.47379356742255
 30
0.0
  0
VERTEX
  5
48A
  8
LAYER_1
 10
1.788098819433936
 20
43.87828052471382
 30
0.0
  0
VERTEX
  5
48B
  8
LAYER_1
 10
1.558774573273904
 20
44.27411227303612
 30
0.0
  0
VERTEX
  5
48C
  8
LAYER_1
 10
1.323989086425753
 20
44.6616261502492
 30
0.0
  0
VERTEX
  5
48D
  8
LAYER_1
 10
1.083503380910849
 20
45.04115949421275
 30
0.0
  0
VERTEX
  5
48E
  8
LAYER_1
 10
0.8370784787505579
 20
45.4130496427865
 30
0.0
  0
VERTEX
  5
48F
  8
LAYER_1
 10
0.5844754019662464
 20
45.77763393383017
 30
0.0
  0
VERTEX
  5
490
  8
LAYER_1
 10
0.3254551725792801
 20
46.13524970520348
 30
0.0
  0
VERTEX
  5
491
  8
LAYER_1
 10
0.0597788126110253
 20
46.48623429476613
 30
0.0
  0
VERTEX
  5
492
  8
LAYER_1
 10
-0.2127926559171521
 20
46.83092504037786
 30
0.0
  0
VERTEX
  5
493
  8
LAYER_1
 10
-0.492498210983886
 20
47.16965927989838
 30
0.0
  0
VERTEX
  5
494
  8
LAYER_1
 10
-0.7795768305678104
 20
47.5027743511874
 30
0.0
  0
VERTEX
  5
495
  8
LAYER_1
 10
-1.074267492647559
 20
47.83060759210466
 30
0.0
  0
VERTEX
  5
496
  8
LAYER_1
 10
-1.376809175201766
 20
48.15349634050985
 30
0.0
  0
VERTEX
  5
497
  8
LAYER_1
 10
-1.687440856209065
 20
48.4717779342627
 30
0.0
  0
VERTEX
  5
498
  8
LAYER_1
 10
-1.924955350257818
 20
48.70559061995046
 30
0.0
  0
VERTEX
  5
499
  8
LAYER_1
 10
-2.152993855936317
 20
48.91934206422667
 30
0.0
  0
VERTEX
  5
49A
  8
LAYER_1
 10
-2.379864731030946
 20
49.11968381245148
 30
0.0
  0
VERTEX
  5
49B
  8
LAYER_1
 10
-2.61387633332809
 20
49.31326740998503
 30
0.0
  0
VERTEX
  5
49C
  8
LAYER_1
 10
-2.863337020614132
 20
49.50674440218748
 30
0.0
  0
VERTEX
  5
49D
  8
LAYER_1
 10
-3.136555150675457
 20
49.70676633441895
 30
0.0
  0
VERTEX
  5
49E
  8
LAYER_1
 10
-3.787497170269489
 20
50.15305120040958
 30
0.0
  0
VERTEX
  5
49F
  8
LAYER_1
 10
-4.21861001902901
 20
50.43437833176361
 30
0.0
  0
VERTEX
  5
4A0
  8
LAYER_1
 10
-4.61774866599076
 20
50.67868366701115
 30
0.0
  0
VERTEX
  5
4A1
  8
LAYER_1
 10
-5.080591174238184
 20
50.942351095576
 30
0.0
  0
VERTEX
  5
4A2
  8
LAYER_1
 10
-5.702815606854728
 20
51.28176450688197
 30
0.0
  0
VERTEX
  5
4A3
  8
LAYER_1
 10
-6.118133983835321
 20
51.50593719656507
 30
0.0
  0
VERTEX
  5
4A4
  8
LAYER_1
 10
-8.062497340142727
 20
52.49139217506186
 30
0.0
  0
VERTEX
  5
4A5
  8
LAYER_1
 10
-8.201503374255054
 20
52.59411378475376
 30
0.0
  0
VERTEX
  5
4A6
  8
LAYER_1
 10
-8.276281036607065
 20
52.65953851841958
 30
0.0
  0
VERTEX
  5
4A7
  8
LAYER_1
 10
-8.295568294219489
 20
52.69332282270106
 30
0.0
  0
VERTEX
  5
4A8
  8
LAYER_1
 10
-8.302999489887972
 20
52.73404386044932
 30
0.0
  0
VERTEX
  5
4A9
  8
LAYER_1
 10
-8.298733363936348
 20
52.78636821304016
 30
0.0
  0
VERTEX
  5
4AA
  8
LAYER_1
 10
-8.282928656688453
 20
52.85496246184939
 30
0.0
  0
VERTEX
  5
4AB
  8
LAYER_1
 10
-8.21733845959919
 20
53.05962697362619
 30
0.0
  0
VERTEX
  5
4AC
  8
LAYER_1
 10
-8.169015987182847
 20
53.23273163117005
 30
0.0
  0
VERTEX
  5
4AD
  8
LAYER_1
 10
-8.141014387578876
 20
53.40563322898818
 30
0.0
  0
VERTEX
  5
4AE
  8
LAYER_1
 10
-8.133062741931273
 20
53.5762833645251
 30
0.0
  0
VERTEX
  5
4AF
  8
LAYER_1
 10
-8.144890131384042
 20
53.74263363522532
 30
0.0
  0
VERTEX
  5
4B0
  8
LAYER_1
 10
-8.176225637081181
 20
53.90263563853335
 30
0.0
  0
VERTEX
  5
4B1
  8
LAYER_1
 10
-8.226798340166694
 20
54.05424097189372
 30
0.0
  0
VERTEX
  5
4B2
  8
LAYER_1
 10
-8.296337321784575
 20
54.19540123275092
 30
0.0
  0
VERTEX
  5
4B3
  8
LAYER_1
 10
-8.38457166307883
 20
54.32406801854947
 30
0.0
  0
VERTEX
  5
4B4
  8
LAYER_1
 10
-8.575520983527056
 20
54.56250514835119
 30
0.0
  0
VERTEX
  5
4B5
  8
LAYER_1
 10
-9.8624974116683
 20
55.88609976564712
 30
0.0
  0
VERTEX
  5
4B6
  8
LAYER_1
 10
-10.14075956767822
 20
56.03055248903667
 30
0.0
  0
VERTEX
  5
4B7
  8
LAYER_1
 10
-10.26743983471524
 20
56.08719360666512
 30
0.0
  0
VERTEX
  5
4B8
  8
LAYER_1
 10
-10.40088342878139
 20
56.12907608753892
 30
0.0
  0
VERTEX
  5
4B9
  8
LAYER_1
 10
-10.54117122572446
 20
56.15620261361931
 30
0.0
  0
VERTEX
  5
4BA
  8
LAYER_1
 10
-10.68838410139221
 20
56.16857586686753
 30
0.0
  0
VERTEX
  5
4BB
  8
LAYER_1
 10
-10.84260293163243
 20
56.1661985292448
 30
0.0
  0
VERTEX
  5
4BC
  8
LAYER_1
 10
-11.00390859229291
 20
56.14907328271237
 30
0.0
  0
VERTEX
  5
4BD
  8
LAYER_1
 10
-11.1723819592214
 20
56.11720280923147
 30
0.0
  0
VERTEX
  5
4BE
  8
LAYER_1
 10
-11.34810390826571
 20
56.07058979076334
 30
0.0
  0
VERTEX
  5
4BF
  8
LAYER_1
 10
-11.52510925748663
 20
56.02234539617302
 30
0.0
  0
VERTEX
  5
4C0
  8
LAYER_1
 10
-11.64336774788785
 20
56.00523018081236
 30
0.0
  0
VERTEX
  5
4C1
  8
LAYER_1
 10
-11.68608213189841
 20
56.0082480563561
 30
0.0
  0
VERTEX
  5
4C2
  8
LAYER_1
 10
-11.72084805424485
 20
56.0189306759228
 30
0.0
  0
VERTEX
  5
4C3
  8
LAYER_1
 10
-11.74991159927412
 20
56.03723885591761
 30
0.0
  0
VERTEX
  5
4C4
  8
LAYER_1
 10
-11.77551885133314
 20
56.06313341274574
 30
0.0
  0
VERTEX
  5
4C5
  8
LAYER_1
 10
-11.81698679423071
 20
56.10411178520458
 30
0.0
  0
VERTEX
  5
4C6
  8
LAYER_1
 10
-11.87620197670208
 20
56.14950956137003
 30
0.0
  0
VERTEX
  5
4C7
  8
LAYER_1
 10
-12.04010672371564
 20
56.25026529021829
 30
0.0
  0
VERTEX
  5
4C8
  8
LAYER_1
 10
-12.25169841907257
 20
56.35880453008559
 30
0.0
  0
VERTEX
  5
4C9
  8
LAYER_1
 10
-12.49544238947164
 20
56.468531211767
 30
0.0
  0
VERTEX
  5
4CA
  8
LAYER_1
 10
-12.75580396161161
 20
56.5728492660576
 30
0.0
  0
VERTEX
  5
4CB
  8
LAYER_1
 10
-13.01724846219123
 20
56.66516262375246
 30
0.0
  0
VERTEX
  5
4CC
  8
LAYER_1
 10
-13.26424121790928
 20
56.73887521564664
 30
0.0
  0
VERTEX
  5
4CD
  8
LAYER_1
 10
-13.48124755546451
 20
56.78739097253523
 30
0.0
  0
VERTEX
  5
4CE
  8
LAYER_1
 10
-13.7689205464773
 20
56.82545247085017
 30
0.0
  0
VERTEX
  5
4CF
  8
LAYER_1
 10
-14.04894185204432
 20
56.83875156673302
 30
0.0
  0
VERTEX
  5
4D0
  8
LAYER_1
 10
-14.32557068785814
 20
56.82649472400131
 30
0.0
  0
VERTEX
  5
4D1
  8
LAYER_1
 10
-14.60306626961133
 20
56.78788840647258
 30
0.0
  0
VERTEX
  5
4D2
  8
LAYER_1
 10
-14.88568781299646
 20
56.7221390779644
 30
0.0
  0
VERTEX
  5
4D3
  8
LAYER_1
 10
-15.17769453370609
 20
56.62845320229431
 30
0.0
  0
VERTEX
  5
4D4
  8
LAYER_1
 10
-15.4833456474328
 20
56.50603724327986
 30
0.0
  0
VERTEX
  5
4D5
  8
LAYER_1
 10
-15.80690036986915
 20
56.35409766473859
 30
0.0
  0
VERTEX
  5
4D6
  8
LAYER_1
 10
-16.06705846730403
 20
56.21452332851909
 30
0.0
  0
VERTEX
  5
4D7
  8
LAYER_1
 10
-16.3194295615083
 20
56.06033057365441
 30
0.0
  0
VERTEX
  5
4D8
  8
LAYER_1
 10
-16.56304601733938
 20
55.89271464221881
 30
0.0
  0
VERTEX
  5
4D9
  8
LAYER_1
 10
-16.79694019965468
 20
55.71287077628648
 30
0.0
  0
VERTEX
  5
4DA
  8
LAYER_1
 10
-17.02014447331162
 20
55.52199421793167
 30
0.0
  0
VERTEX
  5
4DB
  8
LAYER_1
 10
-17.23169120316761
 20
55.3212802092286
 30
0.0
  0
VERTEX
  5
4DC
  8
LAYER_1
 10
-17.43061275408005
 20
55.11192399225152
 30
0.0
  0
VERTEX
  5
4DD
  8
LAYER_1
 10
-17.61594149090637
 20
54.89512080907464
 30
0.0
  0
VERTEX
  5
4DE
  8
LAYER_1
 10
-17.78670977850398
 20
54.67206590177219
 30
0.0
  0
VERTEX
  5
4DF
  8
LAYER_1
 10
-17.94194998173027
 20
54.4439545124184
 30
0.0
  0
VERTEX
  5
4E0
  8
LAYER_1
 10
-18.08069446544269
 20
54.2119818830875
 30
0.0
  0
VERTEX
  5
4E1
  8
LAYER_1
 10
-18.20197559449862
 20
53.97734325585372
 30
0.0
  0
VERTEX
  5
4E2
  8
LAYER_1
 10
-18.30482573375549
 20
53.74123387279128
 30
0.0
  0
VERTEX
  5
4E3
  8
LAYER_1
 10
-18.38827724807071
 20
53.50484897597443
 30
0.0
  0
VERTEX
  5
4E4
  8
LAYER_1
 10
-18.45136250230169
 20
53.26938380747737
 30
0.0
  0
VERTEX
  5
4E5
  8
LAYER_1
 10
-18.49311386130584
 20
53.03603360937436
 30
0.0
  0
VERTEX
  5
4E6
  8
LAYER_1
 10
-18.50903715959552
 20
52.82456346495832
 30
0.0
  0
VERTEX
  5
4E7
  8
LAYER_1
 10
-18.50412555768444
 20
52.59571764989492
 30
0.0
  0
VERTEX
  5
4E8
  8
LAYER_1
 10
-18.47940606981427
 20
52.35440223777012
 30
0.0
  0
VERTEX
  5
4E9
  8
LAYER_1
 10
-18.43590571022669
 20
52.10552330216986
 30
0.0
  0
VERTEX
  5
4EA
  8
LAYER_1
 10
-18.3746514931634
 20
51.8539869166801
 30
0.0
  0
VERTEX
  5
4EB
  8
LAYER_1
 10
-18.29667043286606
 20
51.60469915488682
 30
0.0
  0
VERTEX
  5
4EC
  8
LAYER_1
 10
-18.20298954357636
 20
51.36256609037595
 30
0.0
  0
VERTEX
  5
4ED
  8
LAYER_1
 10
-18.09463583953599
 20
51.13249379673344
 30
0.0
  0
VERTEX
  5
4EE
  8
LAYER_1
 10
-17.83271944624355
 20
50.62748256134475
 30
0.0
  0
VERTEX
  5
4EF
  8
LAYER_1
 10
-17.96169818792113
 20
50.30749376395089
 30
0.0
  0
VERTEX
  5
4F0
  8
LAYER_1
 10
-18.01720744902515
 20
50.14446134679402
 30
0.0
  0
VERTEX
  5
4F1
  8
LAYER_1
 10
-18.05672352852804
 20
49.97381241050883
 30
0.0
  0
VERTEX
  5
4F2
  8
LAYER_1
 10
-18.08025868106277
 20
49.8005259895009
 30
0.0
  0
VERTEX
  5
4F3
  8
LAYER_1
 10
-18.08782516126231
 20
49.62958111817579
 30
0.0
  0
VERTEX
  5
4F4
  8
LAYER_1
 10
-18.07943522375964
 20
49.46595683093905
 30
0.0
  0
VERTEX
  5
4F5
  8
LAYER_1
 10
-18.05510112318775
 20
49.31463216219625
 30
0.0
  0
VERTEX
  5
4F6
  8
LAYER_1
 10
-18.0148351141796
 20
49.18058614635297
 30
0.0
  0
VERTEX
  5
4F7
  8
LAYER_1
 10
-17.95864945136818
 20
49.06879781781475
 30
0.0
  0
VERTEX
  5
4F8
  8
LAYER_1
 10
-17.82499347173719
 20
48.86250492185354
 30
0.0
  0
VERTEX
  5
4F9
  8
LAYER_1
 10
-16.33602696828309
 20
47.2570755647521
 30
0.0
  0
VERTEX
  5
4FA
  8
LAYER_1
 10
-16.00499769719957
 20
47.13065433268167
 30
0.0
  0
VERTEX
  5
4FB
  8
LAYER_1
 10
-15.87688645615167
 20
47.09093159863643
 30
0.0
  0
VERTEX
  5
4FC
  8
LAYER_1
 10
-15.73420234125128
 20
47.06281102954505
 30
0.0
  0
VERTEX
  5
4FD
  8
LAYER_1
 10
-15.58175037408149
 20
47.04626888836552
 30
0.0
  0
VERTEX
  5
4FE
  8
LAYER_1
 10
-15.42433557622537
 20
47.04128143805589
 30
0.0
  0
VERTEX
  5
4FF
  8
LAYER_1
 10
-15.26676296926601
 20
47.04782494157416
 30
0.0
  0
VERTEX
  5
500
  8
LAYER_1
 10
-15.11383757478649
 20
47.06587566187837
 30
0.0
  0
VERTEX
  5
501
  8
LAYER_1
 10
-14.97036441436991
 20
47.0954098619265
 30
0.0
  0
VERTEX
  5
502
  8
LAYER_1
 10
-14.84114850959934
 20
47.1364038046766
 30
0.0
  0
VERTEX
  5
503
  8
LAYER_1
 10
-14.81327824313353
 20
47.14358296622832
 30
0.0
  0
VERTEX
  5
504
  8
LAYER_1
 10
-14.78498595436529
 20
47.14319280780875
 30
0.0
  0
VERTEX
  5
505
  8
LAYER_1
 10
-14.75590979769366
 20
47.13465514544174
 30
0.0
  0
VERTEX
  5
506
  8
LAYER_1
 10
-14.72568792751768
 20
47.11739179515112
 30
0.0
  0
VERTEX
  5
507
  8
LAYER_1
 10
-14.66035966424876
 20
47.05437529489439
 30
0.0
  0
VERTEX
  5
508
  8
LAYER_1
 10
-14.58610639975081
 20
46.94951783522927
 30
0.0
  0
VERTEX
  5
509
  8
LAYER_1
 10
-14.50003336921609
 20
46.79819394434646
 30
0.0
  0
VERTEX
  5
50A
  8
LAYER_1
 10
-14.39924580783686
 20
46.59577815043664
 30
0.0
  0
VERTEX
  5
50B
  8
LAYER_1
 10
-14.14194803331395
 20
46.01916896629876
 30
0.0
  0
VERTEX
  5
50C
  8
LAYER_1
 10
-13.75487915845983
 20
45.13221048697684
 30
0.0
  0
VERTEX
  5
50D
  8
LAYER_1
 10
-13.39833029745457
 20
44.35129140337168
 30
0.0
  0
VERTEX
  5
50E
  8
LAYER_1
 10
-13.06352025831223
 20
43.66024922257499
 30
0.0
  0
VERTEX
  5
50F
  8
LAYER_1
 10
-12.74166784904688
 20
43.04292145167852
 30
0.0
  0
VERTEX
  5
510
  8
LAYER_1
 10
-12.42399187767255
 20
42.48314559777397
 30
0.0
  0
VERTEX
  5
511
  8
LAYER_1
 10
-12.10171115220332
 20
41.96475916795308
 30
0.0
  0
VERTEX
  5
512
  8
LAYER_1
 10
-11.76604448065322
 20
41.47159966930757
 30
0.0
  0
VERTEX
  5
513
  8
LAYER_1
 10
-11.40821067103633
 20
40.98750460892916
 30
0.0
  0
VERTEX
  5
514
  8
LAYER_1
 10
-11.06316501909236
 20
40.53750459104776
 30
0.0
  0
VERTEX
  5
515
  8
LAYER_1
 10
-10.26996704873783
 20
39.75000455975533
 30
0.0
  0
VERTEX
  5
516
  8
LAYER_1
 10
-9.918197668298689
 20
39.40808782976412
 30
0.0
  0
VERTEX
  5
517
  8
LAYER_1
 10
-9.559395503663765
 20
39.07385674484611
 30
0.0
  0
VERTEX
  5
518
  8
LAYER_1
 10
-9.193475330387626
 20
38.74725141325015
 30
0.0
  0
VERTEX
  5
519
  8
LAYER_1
 10
-8.82035192402485
 20
38.42821194322511
 30
0.0
  0
VERTEX
  5
51A
  8
LAYER_1
 10
-8.439940060130013
 20
38.11667844301981
 30
0.0
  0
VERTEX
  5
51B
  8
LAYER_1
 10
-8.052154514257689
 20
37.81259102088313
 30
0.0
  0
VERTEX
  5
51C
  8
LAYER_1
 10
-7.656910061962455
 20
37.51588978506391
 30
0.0
  0
VERTEX
  5
51D
  8
LAYER_1
 10
-7.254121478798886
 20
37.22651484381099
 30
0.0
  0
VERTEX
  5
51E
  8
LAYER_1
 10
-6.843703540321559
 20
36.94440630537324
 30
0.0
  0
VERTEX
  5
51F
  8
LAYER_1
 10
-6.425571022085048
 20
36.66950427799951
 30
0.0
  0
VERTEX
  5
520
  8
LAYER_1
 10
-5.999638699643929
 20
36.40174886993866
 30
0.0
  0
VERTEX
  5
521
  8
LAYER_1
 10
-5.565821348552779
 20
36.14108018943952
 30
0.0
  0
VERTEX
  5
522
  8
LAYER_1
 10
-5.124033744366172
 20
35.88743834475096
 30
0.0
  0
VERTEX
  5
523
  8
LAYER_1
 10
-4.674190662638686
 20
35.64076344412183
 30
0.0
  0
VERTEX
  5
524
  8
LAYER_1
 10
-4.216206878924893
 20
35.40099559580098
 30
0.0
  0
VERTEX
  5
525
  8
LAYER_1
 10
-3.749997168779373
 20
35.16807490803725
 30
0.0
  0
VERTEX
  5
526
  8
LAYER_1
 10
-2.887497134506702
 20
34.74720103374936
 30
0.0
  0
VERTEX
  5
527
  8
LAYER_1
 10
-2.652762096201243
 20
34.64678475424991
 30
0.0
  0
VERTEX
  5
528
  8
LAYER_1
 10
-2.582086844580172
 20
34.61423025019469
 30
0.0
  0
VERTEX
  5
529
  8
LAYER_1
 10
-2.526207008428569
 20
34.58137325012378
 30
0.0
  0
VERTEX
  5
52A
  8
LAYER_1
 10
-2.482913428277318
 20
34.54428300191366
 30
0.0
  0
VERTEX
  5
52B
  8
LAYER_1
 10
-2.449996944657302
 20
34.49902875344084
 30
0.0
  0
VERTEX
  5
52C
  8
LAYER_1
 10
-2.425248398099408
 20
34.44167975258182
 30
0.0
  0
VERTEX
  5
52D
  8
LAYER_1
 10
-2.406458629134517
 20
34.36830524721311
 30
0.0
  0
VERTEX
  5
52E
  8
LAYER_1
 10
-2.377918786107287
 20
34.15775671445259
 30
0.0
  0
VERTEX
  5
52F
  8
LAYER_1
 10
-2.359002225253205
 20
34.01996915164214
 30
0.0
  0
VERTEX
  5
530
  8
LAYER_1
 10
-2.331234464679163
 20
33.88624905428796
 30
0.0
  0
VERTEX
  5
531
  8
LAYER_1
 10
-2.294822803730633
 20
33.75685714049035
 30
0.0
  0
VERTEX
  5
532
  8
LAYER_1
 10
-2.249974541753085
 20
33.63205412834963
 30
0.0
  0
VERTEX
  5
533
  8
LAYER_1
 10
-2.196896978091992
 20
33.51210073596609
 30
0.0
  0
VERTEX
  5
534
  8
LAYER_1
 10
-2.135797412092824
 20
33.39725768144007
 30
0.0
  0
VERTEX
  5
535
  8
LAYER_1
 10
-2.066883143101053
 20
33.28778568287186
 30
0.0
  0
VERTEX
  5
536
  8
LAYER_1
 10
-1.990361470462149
 20
33.18394545836176
 30
0.0
  0
VERTEX
  5
537
  8
LAYER_1
 10
-1.906439693521585
 20
33.08599772601011
 30
0.0
  0
VERTEX
  5
538
  8
LAYER_1
 10
-1.81532511162483
 20
32.99420320391718
 30
0.0
  0
VERTEX
  5
539
  8
LAYER_1
 10
-1.717225024117357
 20
32.9088226101833
 30
0.0
  0
VERTEX
  5
53A
  8
LAYER_1
 10
-1.612346730344637
 20
32.83011666290878
 30
0.0
  0
VERTEX
  5
53B
  8
LAYER_1
 10
-1.500897529652141
 20
32.75834608019393
 30
0.0
  0
VERTEX
  5
53C
  8
LAYER_1
 10
-1.38308472138534
 20
32.69377158013906
 30
0.0
  0
VERTEX
  5
53D
  8
LAYER_1
 10
-1.259115604889705
 20
32.63665388084446
 30
0.0
  0
VERTEX
  5
53E
  8
LAYER_1
 10
-1.129197479510708
 20
32.58725370041047
 30
0.0
  0
VERTEX
  5
53F
  8
LAYER_1
 10
-0.7874970510601997
 20
32.47031788914416
 30
0.0
  0
VERTEX
  5
540
  8
LAYER_1
 10
1.077607299661636
 20
32.17017779942756
 30
0.0
  0
VERTEX
  5
541
  8
LAYER_1
 10
1.307555170494311
 20
32.02784464817753
 30
0.0
  0
VERTEX
  5
542
  8
LAYER_1
 10
1.41213010397826
 20
31.95589039573309
 30
0.0
  0
VERTEX
  5
543
  8
LAYER_1
 10
1.526878854493514
 20
31.86519266784181
 30
0.0
  0
VERTEX
  5
544
  8
LAYER_1
 10
1.637897837290633
 20
31.76736173399492
 30
0.0
  0
VERTEX
  5
545
  8
LAYER_1
 10
1.731283467620173
 20
31.6740078636836
 30
0.0
  0
VERTEX
  5
546
  8
LAYER_1
 10
1.869582421694479
 20
31.51467321329824
 30
0.0
  0
VERTEX
  5
547
  8
LAYER_1
 10
1.988812233818479
 20
31.34946011307627
 30
0.0
  0
VERTEX
  5
548
  8
LAYER_1
 10
2.099429397014678
 20
31.1520787426244
 30
0.0
  0
VERTEX
  5
549
  8
LAYER_1
 10
2.211890404305581
 20
30.89623928154935
 30
0.0
  0
VERTEX
  5
54A
  8
LAYER_1
 10
2.336651748713696
 20
30.5556519094578
 30
0.0
  0
VERTEX
  5
54B
  8
LAYER_1
 10
2.484169923261527
 20
30.10402680595647
 30
0.0
  0
VERTEX
  5
54C
  8
LAYER_1
 10
2.889302734866362
 20
28.7625041231513
 30
0.0
  0
VERTEX
  5
54D
  8
LAYER_1
 10
3.001755025257542
 20
28.41230486573662
 30
0.0
  0
VERTEX
  5
54E
  8
LAYER_1
 10
3.125505644435809
 20
28.08510658068473
 30
0.0
  0
VERTEX
  5
54F
  8
LAYER_1
 10
3.261884846206801
 20
27.77971054744996
 30
0.0
  0
VERTEX
  5
550
  8
LAYER_1
 10
3.412222884376156
 20
27.49491804548665
 30
0.0
  0
VERTEX
  5
551
  8
LAYER_1
 10
3.57785001274951
 20
27.22953035424914
 30
0.0
  0
VERTEX
  5
552
  8
LAYER_1
 10
3.760096485132501
 20
26.98234875319175
 30
0.0
  0
VERTEX
  5
553
  8
LAYER_1
 10
3.960292555330766
 20
26.75217452176881
 30
0.0
  0
VERTEX
  5
554
  8
LAYER_1
 10
4.179768477149942
 20
26.53780893943468
 30
0.0
  0
VERTEX
  5
555
  8
LAYER_1
 10
4.419854504395666
 20
26.33805328564366
 30
0.0
  0
VERTEX
  5
556
  8
LAYER_1
 10
4.681880890873577
 20
26.15170883985011
 30
0.0
  0
VERTEX
  5
557
  8
LAYER_1
 10
4.96717789038931
 20
25.97757688150834
 30
0.0
  0
VERTEX
  5
558
  8
LAYER_1
 10
5.277075756748506
 20
25.8144586900727
 30
0.0
  0
VERTEX
  5
559
  8
LAYER_1
 10
5.612904743756798
 20
25.66115554499752
 30
0.0
  0
VERTEX
  5
55A
  8
LAYER_1
 10
5.975995105219825
 20
25.51646872573713
 30
0.0
  0
VERTEX
  5
55B
  8
LAYER_1
 10
6.367677094943224
 20
25.37919951174586
 30
0.0
  0
VERTEX
  5
55C
  8
LAYER_1
 10
6.789280966732633
 20
25.24814918247806
 30
0.0
  0
VERTEX
  5
55D
  8
LAYER_1
 10
7.687503285706043
 20
24.98435949188598
 30
0.0
  0
VERTEX
  5
55E
  8
LAYER_1
 10
8.363453242248667
 20
24.74835750855675
 30
0.0
  0
VERTEX
  5
55F
  8
LAYER_1
 10
8.337455289554185
 20
24.42147587983575
 30
0.0
  0
VERTEX
  5
560
  8
LAYER_1
 10
8.331390549903722
 20
24.31723835689286
 30
0.0
  0
VERTEX
  5
561
  8
LAYER_1
 10
8.334080728375515
 20
24.22862913216717
 30
0.0
  0
VERTEX
  5
562
  8
LAYER_1
 10
8.349482621450218
 20
24.14767286686422
 30
0.0
  0
VERTEX
  5
563
  8
LAYER_1
 10
8.381553025608481
 20
24.06639422218954
 30
0.0
  0
VERTEX
  5
564
  8
LAYER_1
 10
8.434248737330964
 20
23.97681785934866
 30
0.0
  0
VERTEX
  5
565
  8
LAYER_1
 10
8.51152655309832
 20
23.87096843954713
 30
0.0
  0
VERTEX
  5
566
  8
LAYER_1
 10
8.755655682690275
 20
23.57854907388422
 30
0.0
  0
VERTEX
  5
567
  8
LAYER_1
 10
9.141739266599403
 20
23.15027492899833
 30
0.0
  0
VERTEX
  5
568
  8
LAYER_1
 10
9.311582211699724
 20
22.97843307395296
 30
0.0
  0
VERTEX
  5
569
  8
LAYER_1
 10
9.466443718072552
 20
22.83436005516982
 30
0.0
  0
VERTEX
  5
56A
  8
LAYER_1
 10
9.606687130099392
 20
22.7177348911468
 30
0.0
  0
VERTEX
  5
56B
  8
LAYER_1
 10
9.732675792161743
 20
22.62823660038176
 30
0.0
  0
VERTEX
  5
56C
  8
LAYER_1
 10
9.844773048641109
 20
22.5655442013726
 30
0.0
  0
VERTEX
  5
56D
  8
LAYER_1
 10
9.943342243918991
 20
22.52933671261719
 30
0.0
  0
VERTEX
  5
56E
  8
LAYER_1
 10
10.06870893794249
 20
22.50767013476525
 30
0.0
  0
VERTEX
  5
56F
  8
LAYER_1
 10
10.20790398521316
 20
22.50131051444981
 30
0.0
  0
VERTEX
  5
570
  8
LAYER_1
 10
10.35809979095683
 20
22.50973863450629
 30
0.0
  0
VERTEX
  5
571
  8
LAYER_1
 10
10.5164687603993
 20
22.53243527777011
 30
0.0
  0
VERTEX
  5
572
  8
LAYER_1
 10
10.68018329876639
 20
22.56888122707669
 30
0.0
  0
VERTEX
  5
573
  8
LAYER_1
 10
10.8464158112839
 20
22.61855726526144
 30
0.0
  0
VERTEX
  5
574
  8
LAYER_1
 10
11.01233870317765
 20
22.68094417515978
 30
0.0
  0
VERTEX
  5
575
  8
LAYER_1
 10
11.17512437967345
 20
22.75552273960712
 30
0.0
  0
VERTEX
  5
576
  8
LAYER_1
 10
11.5772809479566
 20
22.95751449007456
 30
0.0
  0
VERTEX
  5
577
  8
LAYER_1
 10
12.32013704503638
 20
22.22250916207166
 30
0.0
  0
VERTEX
  5
578
  8
LAYER_1
 10
12.65256574257944
 20
21.88504173334972
 30
0.0
  0
VERTEX
  5
579
  8
LAYER_1
 10
12.96275537870363
 20
21.5525604555865
 30
0.0
  0
VERTEX
  5
57A
  8
LAYER_1
 10
13.2502236037904
 20
21.22567163046487
 30
0.0
  0
VERTEX
  5
57B
  8
LAYER_1
 10
13.51448806822117
 20
20.90498155966765
 30
0.0
  0
VERTEX
  5
57C
  8
LAYER_1
 10
13.7550664223774
 20
20.59109654487768
 30
0.0
  0
VERTEX
  5
57D
  8
LAYER_1
 10
13.97147631664054
 20
20.2846228877778
 30
0.0
  0
VERTEX
  5
57E
  8
LAYER_1
 10
14.16323540139202
 20
19.98616689005086
 30
0.0
  0
VERTEX
  5
57F
  8
LAYER_1
 10
14.32986132701329
 20
19.6963348533797
 30
0.0
  0
VERTEX
  5
580
  8
LAYER_1
 10
14.49764755705721
 20
19.37144442057947
 30
0.0
  0
VERTEX
  5
581
  8
LAYER_1
 10
14.55120437782823
 20
19.24867303398771
 30
0.0
  0
VERTEX
  5
582
  8
LAYER_1
 10
14.58773163047583
 20
19.14091849147569
 30
0.0
  0
VERTEX
  5
583
  8
LAYER_1
 10
14.60962528603291
 20
19.03960651119906
 30
0.0
  0
VERTEX
  5
584
  8
LAYER_1
 10
14.61928131553235
 20
18.93616281131344
 30
0.0
  0
VERTEX
  5
585
  8
LAYER_1
 10
14.61146438048996
 20
18.68858312533783
 30
0.0
  0
VERTEX
  5
586
  8
LAYER_1
 10
14.58920097592639
 20
18.4949830804665
 30
0.0
  0
VERTEX
  5
587
  8
LAYER_1
 10
14.54978999133664
 20
18.30724273366168
 30
0.0
  0
VERTEX
  5
588
  8
LAYER_1
 10
14.4913699475113
 20
18.12144611818881
 30
0.0
  0
VERTEX
  5
589
  8
LAYER_1
 10
14.41207936524097
 20
17.93367726731331
 30
0.0
  0
VERTEX
  5
58A
  8
LAYER_1
 10
14.31005676531626
 20
17.74002021430062
 30
0.0
  0
VERTEX
  5
58B
  8
LAYER_1
 10
14.18344066852777
 20
17.53655899241618
 30
0.0
  0
VERTEX
  5
58C
  8
LAYER_1
 10
14.03036959566609
 20
17.31937763492542
 30
0.0
  0
VERTEX
  5
58D
  8
LAYER_1
 10
13.84898206752183
 20
17.08456017509376
 30
0.0
  0
VERTEX
  5
58E
  8
LAYER_1
 10
13.44618871020948
 20
16.5816166710908
 30
0.0
  0
VERTEX
  5
58F
  8
LAYER_1
 10
13.47947350333001
 20
15.69706011995946
 30
0.0
  0
VERTEX
  5
590
  8
LAYER_1
 10
13.48859464293611
 20
15.22986301627547
 30
0.0
  0
VERTEX
  5
591
  8
LAYER_1
 10
13.47403195763146
 20
14.83322027851069
 30
0.0
  0
VERTEX
  5
592
  8
LAYER_1
 10
13.43171498360156
 20
14.45142473672418
 30
0.0
  0
VERTEX
  5
593
  8
LAYER_1
 10
13.35757325703192
 20
14.02876922097498
 30
0.0
  0
VERTEX
  5
594
  8
LAYER_1
 10
13.27786357656874
 20
13.60409870204297
 30
0.0
  0
VERTEX
  5
595
  8
LAYER_1
 10
13.25613624158249
 20
13.45768800322906
 30
0.0
  0
VERTEX
  5
596
  8
LAYER_1
 10
13.2460295432166
 20
13.34484454921353
 30
0.0
  0
VERTEX
  5
597
  8
LAYER_1
 10
13.24719520631367
 20
13.25778149326914
 30
0.0
  0
VERTEX
  5
598
  8
LAYER_1
 10
13.2592849557163
 20
13.18871198866862
 30
0.0
  0
VERTEX
  5
599
  8
LAYER_1
 10
13.2819505162671
 20
13.12984918868472
 30
0.0
  0
VERTEX
  5
59A
  8
LAYER_1
 10
13.31484361280866
 20
13.0734062465902
 30
0.0
  0
VERTEX
  5
59B
  8
LAYER_1
 10
13.42729900800408
 20
12.90177762005848
 30
0.0
  0
VERTEX
  5
59C
  8
LAYER_1
 10
17.5875036790967
 20
8.344266345391546
 30
0.0
  0
VERTEX
  5
59D
  8
LAYER_1
 10
23.28750390559435
 20
2.083395068595976
 30
0.0
  0
VERTEX
  5
59E
  8
LAYER_1
 10
24.21546230423736
 20
1.060449025159159
 30
0.0
  0
VERTEX
  5
59F
  8
LAYER_1
 10
25.90863829064065
 20
-0.7874970510601997
 30
0.0
  0
VERTEX
  5
5A0
  8
LAYER_1
 10
27.60033005171326
 20
-2.62499712407589
 30
0.0
  0
VERTEX
  5
5A1
  8
LAYER_1
 10
29.73439555063695
 20
-4.949997216463089
 30
0.0
  0
VERTEX
  5
5A2
  8
LAYER_1
 10
32.13407423379159
 20
-7.574997320771217
 30
0.0
  0
VERTEX
  5
5A3
  8
LAYER_1
 10
33.32616159133492
 20
-8.887497372925282
 30
0.0
  0
SEQEND
  5
9E6
  8
LAYER_1
  0
POLYLINE
  5
74
  8
LAYER_1
 66
     1
 10
0.0
 20
0.0
 30
0.0
 70
     1
  0
VERTEX
  5
5A4
  8
LAYER_1
 10
-34.24448620276903
 20
-8.785948113506649
 30
0.0
  0
VERTEX
  5
5A5
  8
LAYER_1
 10
-33.72647400443265
 20
-9.149997383356094
 30
0.0
  0
VERTEX
  5
5A6
  8
LAYER_1
 10
-33.65963343492322
 20
-9.149997383356094
 30
0.0
  0
VERTEX
  5
5A7
  8
LAYER_1
 10
-33.6183845458317
 20
-9.142948588054859
 30
0.0
  0
VERTEX
  5
5A8
  8
LAYER_1
 10
-33.56366415883195
 20
-9.122440942467332
 30
0.0
  0
VERTEX
  5
5A9
  8
LAYER_1
 10
-33.4188584197445
 20
-9.044881542330486
 30
0.0
  0
VERTEX
  5
5AA
  8
LAYER_1
 10
-33.23531527493432
 20
-8.924984066739734
 30
0.0
  0
VERTEX
  5
5AB
  8
LAYER_1
 10
-33.02313378167483
 20
-8.770413399489247
 30
0.0
  0
VERTEX
  5
5AC
  8
LAYER_1
 10
-32.79241299723948
 20
-8.588834424373196
 30
0.0
  0
VERTEX
  5
5AD
  8
LAYER_1
 10
-32.5532519789017
 20
-8.387912025185754
 30
0.0
  0
VERTEX
  5
5AE
  8
LAYER_1
 10
-32.31574978393493
 20
-8.175311085721095
 30
0.0
  0
VERTEX
  5
5AF
  8
LAYER_1
 10
-32.09000546961261
 20
-7.958696489773388
 30
0.0
  0
VERTEX
  5
5B0
  8
LAYER_1
 10
-31.4425126185861
 20
-7.312497310340405
 30
0.0
  0
VERTEX
  5
5B1
  8
LAYER_1
 10
-31.31501615314322
 20
-7.012497298419476
 30
0.0
  0
VERTEX
  5
5B2
  8
LAYER_1
 10
-31.24633381999116
 20
-6.836963233441935
 30
0.0
  0
VERTEX
  5
5B3
  8
LAYER_1
 10
-31.23038268615003
 20
-6.771118091665222
 30
0.0
  0
VERTEX
  5
5B4
  8
LAYER_1
 10
-31.22716769674492
 20
-6.711312832743298
 30
0.0
  0
VERTEX
  5
5B5
  8
LAYER_1
 10
-31.23704594373542
 20
-6.651116423461221
 30
0.0
  0
VERTEX
  5
5B6
  8
LAYER_1
 10
-31.2603745190811
 20
-6.584097830604053
 30
0.0
  0
VERTEX
  5
5B7
  8
LAYER_1
 10
-31.34881102267632
 20
-6.403869961304693
 30
0.0
  0
VERTEX
  5
5B8
  8
LAYER_1
 10
-31.39232348525745
 20
-6.33076938407798
 30
0.0
  0
VERTEX
  5
5B9
  8
LAYER_1
 10
-31.44922411783617
 20
-6.251511134231562
 30
0.0
  0
VERTEX
  5
5BA
  8
LAYER_1
 10
-31.59724057879929
 20
-6.080752782586861
 30
0.0
  0
VERTEX
  5
5BB
  8
LAYER_1
 10
-31.78096177719139
 20
-5.904057238185088
 30
0.0
  0
VERTEX
  5
5BC
  8
LAYER_1
 10
-31.98848908463821
 20
-5.733886832840739
 30
0.0
  0
VERTEX
  5
5BD
  8
LAYER_1
 10
-32.46687581162412
 20
-5.372531029570624
 30
0.0
  0
VERTEX
  5
5BE
  8
LAYER_1
 10
-32.38213316714739
 20
-5.235414550510711
 30
0.0
  0
VERTEX
  5
5BF
  8
LAYER_1
 10
-31.86712737637165
 20
-4.90225899672447
 30
0.0
  0
VERTEX
  5
5C0
  8
LAYER_1
 10
-31.66115854357388
 20
-4.761686586967632
 30
0.0
  0
VERTEX
  5
5C1
  8
LAYER_1
 10
-31.48106142312245
 20
-4.625219397377867
 30
0.0
  0
VERTEX
  5
5C2
  8
LAYER_1
 10
-31.34623041584526
 20
-4.508452489665846
 30
0.0
  0
VERTEX
  5
5C3
  8
LAYER_1
 10
-31.27605992257013
 20
-4.426980925542239
 30
0.0
  0
VERTEX
  5
5C4
  8
LAYER_1
 10
-31.24652660497341
 20
-4.335900547037285
 30
0.0
  0
VERTEX
  5
5C5
  8
LAYER_1
 10
-31.22234137305819
 20
-4.192971025910705
 30
0.0
  0
VERTEX
  5
5C6
  8
LAYER_1
 10
-31.2060000001425
 20
-4.017783168467389
 30
0.0
  0
VERTEX
  5
5C7
  8
LAYER_1
 10
-31.19999825954437
 20
-3.829927781012231
 30
0.0
  0
VERTEX
  5
5C8
  8
LAYER_1
 10
-31.19999825954437
 20
-3.374997153878212
 30
0.0
  0
VERTEX
  5
5C9
  8
LAYER_1
 10
-29.88749820739031
 20
-3.383481100853643
 30
0.0
  0
VERTEX
  5
5CA
  8
LAYER_1
 10
-26.73749808222055
 20
-3.450952505456115
 30
0.0
  0
VERTEX
  5
5CB
  8
LAYER_1
 10
-23.64257608423941
 20
-3.532268275246627
 30
0.0
  0
VERTEX
  5
5CC
  8
LAYER_1
 10
-20.62499783933163
 20
-3.633025068492699
 30
0.0
  0
VERTEX
  5
5CD
  8
LAYER_1
 10
-17.66249772161245
 20
-3.747626226926826
 30
0.0
  0
VERTEX
  5
5CE
  8
LAYER_1
 10
-15.6749976426363
 20
-3.860432866365215
 30
0.0
  0
VERTEX
  5
5CF
  8
LAYER_1
 10
-12.40272746113603
 20
-4.051336154710851
 30
0.0
  0
VERTEX
  5
5D0
  8
LAYER_1
 10
-9.84420617638512
 20
-4.214113125294386
 30
0.0
  0
VERTEX
  5
5D1
  8
LAYER_1
 10
-7.716705526039601
 20
-4.367861117831936
 30
0.0
  0
VERTEX
  5
5D2
  8
LAYER_1
 10
-5.737497247755527
 20
-4.531677472039618
 30
0.0
  0
VERTEX
  5
5D3
  8
LAYER_1
 10
-3.48749715834856
 20
-4.728422633704696
 30
0.0
  0
VERTEX
  5
5D4
  8
LAYER_1
 10
-2.512497119605541
 20
-4.813428552181406
 30
0.0
  0
VERTEX
  5
5D5
  8
LAYER_1
 10
1.762503050267696
 20
-5.248958474304885
 30
0.0
  0
VERTEX
  5
5D6
  8
LAYER_1
 10
3.787503130733967
 20
-5.48217053900207
 30
0.0
  0
VERTEX
  5
5D7
  8
LAYER_1
 10
4.257629227506229
 20
-5.526462623667356
 30
0.0
  0
VERTEX
  5
5D8
  8
LAYER_1
 10
4.500798458549829
 20
-5.543409877274472
 30
0.0
  0
VERTEX
  5
5D9
  8
LAYER_1
 10
4.666541214968911
 20
-5.536712107553102
 30
0.0
  0
VERTEX
  5
5DA
  8
LAYER_1
 10
4.729020786144227
 20
-5.523236214264799
 30
0.0
  0
VERTEX
  5
5DB
  8
LAYER_1
 10
4.78251548380338
 20
-5.502336915529054
 30
0.0
  0
VERTEX
  5
5DC
  8
LAYER_1
 10
4.830482556326356
 20
-5.473510161474091
 30
0.0
  0
VERTEX
  5
5DD
  8
LAYER_1
 10
4.876379252093145
 20
-5.436251902228136
 30
0.0
  0
VERTEX
  5
5DE
  8
LAYER_1
 10
5.025003179907799
 20
-5.301749096123643
 30
0.0
  0
VERTEX
  5
5DF
  8
LAYER_1
 10
5.025003179907799
 20
-0.7585026452054251
 30
0.0
  0
VERTEX
  5
5E0
  8
LAYER_1
 10
4.858315205028802
 20
-0.641749842917406
 30
0.0
  0
VERTEX
  5
5E1
  8
LAYER_1
 10
4.783567400942075
 20
-0.5964169189040114
 30
0.0
  0
VERTEX
  5
5E2
  8
LAYER_1
 10
4.703267349462401
 20
-0.5592931763014928
 30
0.0
  0
VERTEX
  5
5E3
  8
LAYER_1
 10
4.627053722847788
 20
-0.534209566434926
 30
0.0
  0
VERTEX
  5
5E4
  8
LAYER_1
 10
4.564565193356245
 20
-0.5249970406293869
 30
0.0
  0
VERTEX
  5
5E5
  8
LAYER_1
 10
4.513256730554099
 20
-0.5205290834217973
 30
0.0
  0
VERTEX
  5
5E6
  8
LAYER_1
 10
4.467483879578955
 20
-0.5083638534011321
 30
0.0
  0
VERTEX
  5
5E7
  8
LAYER_1
 10
4.432236176045706
 20
-0.490359312970547
 30
0.0
  0
VERTEX
  5
5E8
  8
LAYER_1
 10
4.41250315556924
 20
-0.4683734245331976
 30
0.0
  0
VERTEX
  5
5E9
  8
LAYER_1
 10
4.387503154575825
 20
-0.4117498084370084
 30
0.0
  0
VERTEX
  5
5EA
  8
LAYER_1
 10
3.337503112852573
 20
0.4089157012288496
 30
0.0
  0
VERTEX
  5
5EB
  8
LAYER_1
 10
3.262503109872341
 20
0.4917101708015821
 30
0.0
  0
VERTEX
  5
5EC
  8
LAYER_1
 10
1.912503056228161
 20
1.530314028043264
 30
0.0
  0
VERTEX
  5
5ED
  8
LAYER_1
 10
1.875003054738045
 20
1.573951695025869
 30
0.0
  0
VERTEX
  5
5EE
  8
LAYER_1
 10
1.738362424308434
 20
1.692148747921738
 30
0.0
  0
VERTEX
  5
5EF
  8
LAYER_1
 10
1.462503038346767
 20
1.915046215078789
 30
0.0
  0
VERTEX
  5
5F0
  8
LAYER_1
 10
1.05000302195549
 20
2.253501563735028
 30
0.0
  0
VERTEX
  5
5F1
  8
LAYER_1
 10
0.5479765920939741
 20
2.648385132196339
 30
0.0
  0
VERTEX
  5
5F2
  8
LAYER_1
 10
0.1911250588249587
 20
2.925879876053369
 30
0.0
  0
VERTEX
  5
5F3
  8
LAYER_1
 10
-0.0145234302577677
 20
3.096103094054868
 30
0.0
  0
VERTEX
  5
5F4
  8
LAYER_1
 10
-0.1124970242381096
 20
3.18993598303804
 30
0.0
  0
VERTEX
  5
5F5
  8
LAYER_1
 10
-1.46249707788229
 20
4.234982749585768
 30
0.0
  0
VERTEX
  5
5F6
  8
LAYER_1
 10
-1.64999708533287
 20
4.397909729427923
 30
0.0
  0
VERTEX
  5
5F7
  8
LAYER_1
 10
-1.950740258637778
 20
4.64173729922382
 30
0.0
  0
VERTEX
  5
5F8
  8
LAYER_1
 10
-2.410505749950886
 20
4.99916995278457
 30
0.0
  0
VERTEX
  5
5F9
  8
LAYER_1
 10
-2.983514407118335
 20
5.437503196299076
 30
0.0
  0
VERTEX
  5
5FA
  8
LAYER_1
 10
-5.662497244775295
 20
7.59059825329382
 30
0.0
  0
VERTEX
  5
5FB
  8
LAYER_1
 10
-5.812881183806979
 20
7.714050772480149
 30
0.0
  0
VERTEX
  5
5FC
  8
LAYER_1
 10
-6.48749750269026
 20
8.250003308057785
 30
0.0
  0
VERTEX
  5
5FD
  8
LAYER_1
 10
-7.124613594951015
 20
8.751638976701145
 30
0.0
  0
VERTEX
  5
5FE
  8
LAYER_1
 10
-8.065831893722745
 20
9.51741939926471
 30
0.0
  0
VERTEX
  5
5FF
  8
LAYER_1
 10
-8.703331919054719
 20
10.0186346134011
 30
0.0
  0
VERTEX
  5
600
  8
LAYER_1
 10
-9.18749738484621
 20
10.39006499380432
 30
0.0
  0
VERTEX
  5
601
  8
LAYER_1
 10
-10.16249742358923
 20
11.17417848733251
 30
0.0
  0
VERTEX
  5
602
  8
LAYER_1
 10
-12.29999750852585
 20
12.88548476268866
 30
0.0
  0
VERTEX
  5
603
  8
LAYER_1
 10
-13.46249755471945
 20
13.81267754451663
 30
0.0
  0
VERTEX
  5
604
  8
LAYER_1
 10
-13.61288149375125
 20
13.93759054177121
 30
0.0
  0
VERTEX
  5
605
  8
LAYER_1
 10
-14.28788152057334
 20
14.47320990771973
 30
0.0
  0
VERTEX
  5
606
  8
LAYER_1
 10
-14.81249760836363
 20
14.88391627641369
 30
0.0
  0
VERTEX
  5
607
  8
LAYER_1
 10
-14.84999760985374
 20
14.92682339929465
 30
0.0
  0
VERTEX
  5
608
  8
LAYER_1
 10
-14.95359136397019
 20
15.010081766223
 30
0.0
  0
VERTEX
  5
609
  8
LAYER_1
 10
-15.14999762177467
 20
15.15000358223915
 30
0.0
  0
VERTEX
  5
60A
  8
LAYER_1
 10
-15.34640387957916
 20
15.2897023682229
 30
0.0
  0
VERTEX
  5
60B
  8
LAYER_1
 10
-15.4499976336956
 20
15.37242451400954
 30
0.0
  0
VERTEX
  5
60C
  8
LAYER_1
 10
-15.48749763518572
 20
15.41457238571641
 30
0.0
  0
VERTEX
  5
60D
  8
LAYER_1
 10
-16.4193058829478
 20
16.1635380189955
 30
0.0
  0
VERTEX
  5
60E
  8
LAYER_1
 10
-18.44430596341407
 20
17.76727264516589
 30
0.0
  0
VERTEX
  5
60F
  8
LAYER_1
 10
-19.53749779611826
 20
18.6220416380572
 30
0.0
  0
VERTEX
  5
610
  8
LAYER_1
 10
-19.80172658420477
 20
18.85477268837926
 30
0.0
  0
VERTEX
  5
611
  8
LAYER_1
 10
-20.06050500748177
 20
19.07421711985784
 30
0.0
  0
VERTEX
  5
612
  8
LAYER_1
 10
-20.31162972698371
 20
19.27500374615192
 30
0.0
  0
VERTEX
  5
613
  8
LAYER_1
 10
-21.2099009850908
 20
19.97655929715246
 30
0.0
  0
VERTEX
  5
614
  8
LAYER_1
 10
-21.86249788850546
 20
20.49061484070242
 30
0.0
  0
VERTEX
  5
615
  8
LAYER_1
 10
-22.01288182753733
 20
20.61405932248444
 30
0.0
  0
VERTEX
  5
616
  8
LAYER_1
 10
-22.68749792128801
 20
21.15000382065773
 30
0.0
  0
VERTEX
  5
617
  8
LAYER_1
 10
-23.3621140150387
 20
21.68743823587913
 30
0.0
  0
VERTEX
  5
618
  8
LAYER_1
 10
-23.90014064834331
 20
22.12683936548401
 30
0.0
  0
VERTEX
  5
619
  8
LAYER_1
 10
-24.41669697747137
 20
22.53750387579203
 30
0.0
  0
VERTEX
  5
61A
  8
LAYER_1
 10
-24.70558823107338
 20
22.76250388473272
 30
0.0
  0
VERTEX
  5
61B
  8
LAYER_1
 10
-28.53749815374613
 20
25.81094791925415
 30
0.0
  0
VERTEX
  5
61C
  8
LAYER_1
 10
-28.68788209277802
 20
25.93672596755853
 30
0.0
  0
VERTEX
  5
61D
  8
LAYER_1
 10
-29.36288211960011
 20
26.47321038455689
 30
0.0
  0
VERTEX
  5
61E
  8
LAYER_1
 10
-29.88749820739031
 20
26.88391675325084
 30
0.0
  0
VERTEX
  5
61F
  8
LAYER_1
 10
-29.96249821037054
 20
26.96609134702038
 30
0.0
  0
VERTEX
  5
620
  8
LAYER_1
 10
-30.48749823123217
 20
27.37476835865198
 30
0.0
  0
VERTEX
  5
621
  8
LAYER_1
 10
-30.96843575034291
 20
27.76901920195696
 30
0.0
  0
VERTEX
  5
622
  8
LAYER_1
 10
-31.200467009563
 20
27.97115186235274
 30
0.0
  0
VERTEX
  5
623
  8
LAYER_1
 10
-31.38749826699495
 20
28.14301202165437
 30
0.0
  0
VERTEX
  5
624
  8
LAYER_1
 10
-31.76249828189611
 20
28.50257867302517
 30
0.0
  0
VERTEX
  5
625
  8
LAYER_1
 10
-33.48463997608807
 20
29.85000416636467
 30
0.0
  0
VERTEX
  5
626
  8
LAYER_1
 10
-33.62898985312077
 20
29.85000416636467
 30
0.0
  0
VERTEX
  5
627
  8
LAYER_1
 10
-33.68909256148589
 20
29.83717412418795
 30
0.0
  0
VERTEX
  5
628
  8
LAYER_1
 10
-33.7737705495973
 20
29.80200551738645
 30
0.0
  0
VERTEX
  5
629
  8
LAYER_1
 10
-33.9848580101859
 20
29.68458172828118
 30
0.0
  0
VERTEX
  5
62A
  8
LAYER_1
 10
-34.19826352514026
 20
29.53759103579296
 30
0.0
  0
VERTEX
  5
62B
  8
LAYER_1
 10
-34.28583908120891
 20
29.46546379976278
 30
0.0
  0
VERTEX
  5
62C
  8
LAYER_1
 10
-34.34999838471413
 20
29.40089167666591
 30
0.0
  0
VERTEX
  5
62D
  8
LAYER_1
 10
-34.38749838620424
 20
29.35634977270202
 30
0.0
  0
VERTEX
  5
62E
  8
LAYER_1
 10
-36.01206472052844
 20
28.10582802231079
 30
0.0
  0
VERTEX
  5
62F
  8
LAYER_1
 10
-36.086426773307
 20
27.91204361906414
 30
0.0
  0
VERTEX
  5
630
  8
LAYER_1
 10
-37.22210055012773
 20
27.04218771779148
 30
0.0
  0
VERTEX
  5
631
  8
LAYER_1
 10
-37.38749850541353
 20
26.88558065654486
 30
0.0
  0
VERTEX
  5
632
  8
LAYER_1
 10
-38.43749854713678
 20
26.06609131125759
 30
0.0
  0
VERTEX
  5
633
  8
LAYER_1
 10
-38.51249855011702
 20
25.98031499959912
 30
0.0
  0
VERTEX
  5
634
  8
LAYER_1
 10
-39.8624986037612
 20
24.94171114235716
 30
0.0
  0
VERTEX
  5
635
  8
LAYER_1
 10
-39.93749860674143
 20
24.85677399213823
 30
0.0
  0
VERTEX
  5
636
  8
LAYER_1
 10
-42.57055785291374
 20
22.76250388473272
 30
0.0
  0
VERTEX
  5
637
  8
LAYER_1
 10
-42.8588744209241
 20
22.53750387579203
 30
0.0
  0
VERTEX
  5
638
  8
LAYER_1
 10
-43.37782470928465
 20
22.12447340744773
 30
0.0
  0
VERTEX
  5
639
  8
LAYER_1
 10
-43.91288269776515
 20
21.68743823587913
 30
0.0
  0
VERTEX
  5
63A
  8
LAYER_1
 10
-44.58749879151583
 20
21.15000382065773
 30
0.0
  0
VERTEX
  5
63B
  8
LAYER_1
 10
-45.26211488526651
 20
20.61183194948643
 30
0.0
  0
VERTEX
  5
63C
  8
LAYER_1
 10
-45.41249882429838
 20
20.48616009470642
 30
0.0
  0
VERTEX
  5
63D
  8
LAYER_1
 10
-46.76249887794256
 20
19.42678911973984
 30
0.0
  0
VERTEX
  5
63E
  8
LAYER_1
 10
-46.98355537974756
 20
19.2571464292206
 30
0.0
  0
VERTEX
  5
63F
  8
LAYER_1
 10
-47.18873563437789
 20
19.09327377729049
 30
0.0
  0
VERTEX
  5
640
  8
LAYER_1
 10
-47.37162158446511
 20
18.93750373274088
 30
0.0
  0
VERTEX
  5
641
  8
LAYER_1
 10
-47.53863128737768
 20
18.78750372678041
 30
0.0
  0
VERTEX
  5
642
  8
LAYER_1
 10
-48.67788680158657
 20
17.88750369101763
 30
0.0
  0
VERTEX
  5
643
  8
LAYER_1
 10
-50.68982069223644
 20
16.28823200964742
 30
0.0
  0
VERTEX
  5
644
  8
LAYER_1
 10
-51.56249906867743
 20
15.58896036404002
 30
0.0
  0
VERTEX
  5
645
  8
LAYER_1
 10
-51.71249907463789
 20
15.4621738645439
 30
0.0
  0
VERTEX
  5
646
  8
LAYER_1
 10
-51.89554595691152
 20
15.31817441307477
 30
0.0
  0
VERTEX
  5
647
  8
LAYER_1
 10
-52.12499909102917
 20
15.15000358223924
 30
0.0
  0
VERTEX
  5
648
  8
LAYER_1
 10
-52.35445222514682
 20
14.98206598548001
 30
0.0
  0
VERTEX
  5
649
  8
LAYER_1
 10
-52.53749910742044
 20
14.83862728827944
 30
0.0
  0
VERTEX
  5
64A
  8
LAYER_1
 10
-53.04817456329428
 20
14.41991409292388
 30
0.0
  0
VERTEX
  5
64B
  8
LAYER_1
 10
-53.59121530619606
 20
13.98750353604555
 30
0.0
  0
VERTEX
  5
64C
  8
LAYER_1
 10
-53.87962372921274
 20
13.76250352710485
 30
0.0
  0
VERTEX
  5
64D
  8
LAYER_1
 10
-55.76249923557043
 20
12.26632389988387
 30
0.0
  0
VERTEX
  5
64E
  8
LAYER_1
 10
-55.83749923855066
 20
12.18562563173462
 30
0.0
  0
VERTEX
  5
64F
  8
LAYER_1
 10
-58.46249934285879
 20
10.092380980005
 30
0.0
  0
VERTEX
  5
650
  8
LAYER_1
 10
-58.49999934434891
 20
10.04882870535559
 30
0.0
  0
VERTEX
  5
651
  8
LAYER_1
 10
-58.60359309846535
 20
9.964364062587636
 30
0.0
  0
VERTEX
  5
652
  8
LAYER_1
 10
-58.79999935626984
 20
9.822448009270246
 30
0.0
  0
VERTEX
  5
653
  8
LAYER_1
 10
-59.02945249038748
 20
9.656315136480412
 30
0.0
  0
VERTEX
  5
654
  8
LAYER_1
 10
-59.21249937266111
 20
9.513627076682923
 30
0.0
  0
VERTEX
  5
655
  8
LAYER_1
 10
-59.69999939203262
 20
9.114204597242363
 30
0.0
  0
VERTEX
  5
656
  8
LAYER_1
 10
-60.16119934982002
 20
8.740087600325111
 30
0.0
  0
VERTEX
  5
657
  8
LAYER_1
 10
-60.798699375152
 20
8.240075738616483
 30
0.0
  0
VERTEX
  5
658
  8
LAYER_1
 10
-61.31249945610762
 20
7.840750905535955
 30
0.0
  0
VERTEX
  5
659
  8
LAYER_1
 10
-61.38749945908785
 20
7.758915993291623
 30
0.0
  0
VERTEX
  5
65A
  8
LAYER_1
 10
-61.91211554687826
 20
7.348209624597672
 30
0.0
  0
VERTEX
  5
65B
  8
LAYER_1
 10
-62.58711557370035
 20
6.812239337198122
 30
0.0
  0
VERTEX
  5
65C
  8
LAYER_1
 10
-62.73749951273203
 20
6.686975418492494
 30
0.0
  0
VERTEX
  5
65D
  8
LAYER_1
 10
-65.51249962300062
 20
4.485480028987183
 30
0.0
  0
VERTEX
  5
65E
  8
LAYER_1
 10
-66.03749964386225
 20
4.063680573679846
 30
0.0
  0
VERTEX
  5
65F
  8
LAYER_1
 10
-68.06249972432852
 20
2.460991186751173
 30
0.0
  0
VERTEX
  5
660
  8
LAYER_1
 10
-68.21466646631525
 20
2.336747127450138
 30
0.0
  0
VERTEX
  5
661
  8
LAYER_1
 10
-68.73966648717688
 20
1.915046215078789
 30
0.0
  0
VERTEX
  5
662
  8
LAYER_1
 10
-69.01399561582
 20
1.692148747921738
 30
0.0
  0
VERTEX
  5
663
  8
LAYER_1
 10
-69.14999976754189
 20
1.573951695025869
 30
0.0
  0
VERTEX
  5
664
  8
LAYER_1
 10
-69.187499769032
 20
1.530314028043264
 30
0.0
  0
VERTEX
  5
665
  8
LAYER_1
 10
-70.53749982267618
 20
0.4917101708015821
 30
0.0
  0
VERTEX
  5
666
  8
LAYER_1
 10
-70.61249982565641
 20
0.4089157012288496
 30
0.0
  0
VERTEX
  5
667
  8
LAYER_1
 10
-71.10589222812952
 20
0.0207327009994032
 30
0.0
  0
VERTEX
  5
668
  8
LAYER_1
 10
-71.32363316148138
 20
-0.1436906938175537
 30
0.0
  0
VERTEX
  5
669
  8
LAYER_1
 10
-71.55176035377954
 20
-0.3044205979762733
 30
0.0
  0
VERTEX
  5
66A
  8
LAYER_1
 10
-71.76320349144834
 20
-0.4430230538224944
 30
0.0
  0
VERTEX
  5
66B
  8
LAYER_1
 10
-71.93089226091207
 20
-0.5410641037019559
 30
0.0
  0
VERTEX
  5
66C
  8
LAYER_1
 10
-72.26249989122152
 20
-0.7146779081738543
 30
0.0
  0
VERTEX
  5
66D
  8
LAYER_1
 10
-72.30223398313005
 20
-5.273217486542222
 30
0.0
  0
VERTEX
  5
66E
  8
LAYER_1
 10
-72.16986693270543
 20
-5.420536794846598
 30
0.0
  0
VERTEX
  5
66F
  8
LAYER_1
 10
-72.11306665854117
 20
-5.47409061006624
 30
0.0
  0
VERTEX
  5
670
  8
LAYER_1
 10
-72.0390219007227
 20
-5.511478764272457
 30
0.0
  0
VERTEX
  5
671
  8
LAYER_1
 10
-71.92661445578989
 20
-5.532155799559789
 30
0.0
  0
VERTEX
  5
672
  8
LAYER_1
 10
-71.75472612028253
 20
-5.535576258022775
 30
0.0
  0
VERTEX
  5
673
  8
LAYER_1
 10
-71.50223869074048
 20
-5.521194681755955
 30
0.0
  0
VERTEX
  5
674
  8
LAYER_1
 10
-71.14803396370361
 20
-5.488465612853867
 30
0.0
  0
VERTEX
  5
675
  8
LAYER_1
 10
-70.04999980330467
 20
-5.365783165522046
 30
0.0
  0
VERTEX
  5
676
  8
LAYER_1
 10
-69.11249976605177
 20
-5.257354223686974
 30
0.0
  0
VERTEX
  5
677
  8
LAYER_1
 10
-64.68749959021807
 20
-4.809769891967036
 30
0.0
  0
VERTEX
  5
678
  8
LAYER_1
 10
-63.74999955296516
 20
-4.727201921425106
 30
0.0
  0
VERTEX
  5
679
  8
LAYER_1
 10
-61.26860759265638
 20
-4.513147417767075
 30
0.0
  0
VERTEX
  5
67A
  8
LAYER_1
 10
-59.242536557283
 20
-4.349197581157473
 30
0.0
  0
VERTEX
  5
67B
  8
LAYER_1
 10
-57.52957194263719
 20
-4.224368690840541
 30
0.0
  0
VERTEX
  5
67C
  8
LAYER_1
 10
-55.98749924451113
 20
-4.127677026060525
 30
0.0
  0
VERTEX
  5
67D
  8
LAYER_1
 10
-53.5874991491437
 20
-3.976246254763623
 30
0.0
  0
VERTEX
  5
67E
  8
LAYER_1
 10
-52.46249910444021
 20
-3.8979605416325
 30
0.0
  0
VERTEX
  5
67F
  8
LAYER_1
 10
-48.03749892860651
 20
-3.680150995534419
 30
0.0
  0
VERTEX
  5
680
  8
LAYER_1
 10
-46.57499887049198
 20
-3.637444450257334
 30
0.0
  0
VERTEX
  5
681
  8
LAYER_1
 10
-45.07945193606429
 20
-3.586933948737112
 30
0.0
  0
VERTEX
  5
682
  8
LAYER_1
 10
-43.53749874979258
 20
-3.525464700152057
 30
0.0
  0
VERTEX
  5
683
  8
LAYER_1
 10
-41.9624986872077
 20
-3.456191495323864
 30
0.0
  0
VERTEX
  5
684
  8
LAYER_1
 10
-36.07499845325947
 20
-3.366891906468453
 30
0.0
  0
VERTEX
  5
685
  8
LAYER_1
 10
-36.07384999512505
 20
-3.8771945502899
 30
0.0
  0
VERTEX
  5
686
  8
LAYER_1
 10
-36.06905621415085
 20
-4.081916563558059
 30
0.0
  0
VERTEX
  5
687
  8
LAYER_1
 10
-36.05685281798802
 20
-4.262095598255344
 30
0.0
  0
VERTEX
  5
688
  8
LAYER_1
 10
-36.03908550983492
 20
-4.398250668449993
 30
0.0
  0
VERTEX
  5
689
  8
LAYER_1
 10
-36.01759999288988
 20
-4.470900788210244
 30
0.0
  0
VERTEX
  5
68A
  8
LAYER_1
 10
-35.96249844878912
 20
-4.554304382309112
 30
0.0
  0
VERTEX
  5
68B
  8
LAYER_1
 10
-34.78965056763029
 20
-5.339649397392407
 30
0.0
  0
VERTEX
  5
68C
  8
LAYER_1
 10
-34.83749840408564
 20
-5.38582675894024
 30
0.0
  0
VERTEX
  5
68D
  8
LAYER_1
 10
-35.30807361168232
 20
-5.731600569868618
 30
0.0
  0
VERTEX
  5
68E
  8
LAYER_1
 10
-35.4805579117162
 20
-5.865481358809699
 30
0.0
  0
VERTEX
  5
68F
  8
LAYER_1
 10
-35.63286473516617
 20
-5.998502171649297
 30
0.0
  0
VERTEX
  5
690
  8
LAYER_1
 10
-35.7641322861592
 20
-6.129555797410417
 30
0.0
  0
VERTEX
  5
691
  8
LAYER_1
 10
-35.8734987688223
 20
-6.257535025116066
 30
0.0
  0
VERTEX
  5
692
  8
LAYER_1
 10
-35.96010238728249
 20
-6.381332643789252
 30
0.0
  0
VERTEX
  5
693
  8
LAYER_1
 10
-36.02308134566675
 20
-6.49984144245298
 30
0.0
  0
VERTEX
  5
694
  8
LAYER_1
 10
-36.06157384810209
 20
-6.611954210130257
 30
0.0
  0
VERTEX
  5
695
  8
LAYER_1
 10
-36.07471809871551
 20
-6.71656373584409
 30
0.0
  0
VERTEX
  5
696
  8
LAYER_1
 10
-36.06440925711045
 20
-6.797554223025186
 30
0.0
  0
VERTEX
  5
697
  8
LAYER_1
 10
-36.03409023493023
 20
-6.891924963374742
 30
0.0
  0
VERTEX
  5
698
  8
LAYER_1
 10
-35.98507519510117
 20
-6.9981900751116
 30
0.0
  0
VERTEX
  5
699
  8
LAYER_1
 10
-35.91867830054965
 20
-7.114863676454597
 30
0.0
  0
VERTEX
  5
69A
  8
LAYER_1
 10
-35.836213714202
 20
-7.24045988562257
 30
0.0
  0
VERTEX
  5
69B
  8
LAYER_1
 10
-35.73899559898457
 20
-7.373492820834361
 30
0.0
  0
VERTEX
  5
69C
  8
LAYER_1
 10
-35.50555543364578
 20
-7.655925342264746
 30
0.0
  0
VERTEX
  5
69D
  8
LAYER_1
 10
-35.22887110794404
 20
-7.950274186496459
 30
0.0
  0
VERTEX
  5
69E
  8
LAYER_1
 10
-34.91945592529015
 20
-8.244652299280208
 30
0.0
  0
VERTEX
  5
69F
  8
LAYER_1
 10
-34.58782318909489
 20
-8.527172626366701
 30
0.0
  0
SEQEND
  5
9E7
  8
LAYER_1
  0
POLYLINE
  5
75
  8
LAYER_1
 66
     1
 10
0.0
 20
0.0
 30
0.0
 70
     1
  0
VERTEX
  5
6A0
  8
LAYER_1
 10
-62.39999949932098
 20
0.3799816603436028
 30
0.0
  0
VERTEX
  5
6A1
  8
LAYER_1
 10
-61.83749947696924
 20
0.4361286788797543
 30
0.0
  0
VERTEX
  5
6A2
  8
LAYER_1
 10
-60.3374994173646
 20
0.5552273121178501
 30
0.0
  0
VERTEX
  5
6A3
  8
LAYER_1
 10
-58.89257748494856
 20
0.6609395558774835
 30
0.0
  0
VERTEX
  5
6A4
  8
LAYER_1
 10
-57.52499930560589
 20
0.747853891007793
 30
0.0
  0
VERTEX
  5
6A5
  8
LAYER_1
 10
-56.21249925345182
 20
0.8213818366596399
 30
0.0
  0
VERTEX
  5
6A6
  8
LAYER_1
 10
-55.53749922662973
 20
0.9049221411653718
 30
0.0
  0
VERTEX
  5
6A7
  8
LAYER_1
 10
-53.51249914616346
 20
1.013173729382771
 30
0.0
  0
VERTEX
  5
6A8
  8
LAYER_1
 10
-50.13363551334759
 20
1.183693629716624
 30
0.0
  0
VERTEX
  5
6A9
  8
LAYER_1
 10
-46.46249886602163
 20
1.347524444566019
 30
0.0
  0
VERTEX
  5
6AA
  8
LAYER_1
 10
-44.66249879449606
 20
1.423623160786946
 30
0.0
  0
VERTEX
  5
6AB
  8
LAYER_1
 10
-36.11249845474958
 20
1.592507891701132
 30
0.0
  0
VERTEX
  5
6AC
  8
LAYER_1
 10
-36.09560654266158
 20
1.606897379595168
 30
0.0
  0
VERTEX
  5
6AD
  8
LAYER_1
 10
-36.06932205067874
 20
1.771509582938831
 30
0.0
  0
VERTEX
  5
6AE
  8
LAYER_1
 10
-36.02984797841803
 20
2.147072833509654
 30
0.0
  0
VERTEX
  5
6AF
  8
LAYER_1
 10
-36.00868197235435
 20
2.440731548933081
 30
0.0
  0
VERTEX
  5
6B0
  8
LAYER_1
 10
-36.00928958185637
 20
2.548005405039909
 30
0.0
  0
VERTEX
  5
6B1
  8
LAYER_1
 10
-36.01904981708212
 20
2.638621761038218
 30
0.0
  0
VERTEX
  5
6B2
  8
LAYER_1
 10
-36.03923184105742
 20
2.719865242649063
 30
0.0
  0
VERTEX
  5
6B3
  8
LAYER_1
 10
-36.07110481680814
 20
2.799020475593496
 30
0.0
  0
VERTEX
  5
6B4
  8
LAYER_1
 10
-36.17500027573922
 20
2.980204698367345
 30
0.0
  0
VERTEX
  5
6B5
  8
LAYER_1
 10
-36.36901922521596
 20
3.2875505972046
 30
0.0
  0
VERTEX
  5
6B6
  8
LAYER_1
 10
-37.60748646913518
 20
4.837503172457218
 30
0.0
  0
VERTEX
  5
6B7
  8
LAYER_1
 10
-37.68749851733446
 20
4.91250317543745
 30
0.0
  0
VERTEX
  5
6B8
  8
LAYER_1
 10
-38.38791098026206
 20
5.679531879683367
 30
0.0
  0
VERTEX
  5
6B9
  8
LAYER_1
 10
-38.67027643559003
 20
5.979054748281843
 30
0.0
  0
VERTEX
  5
6BA
  8
LAYER_1
 10
-38.99148433785766
 20
6.302662399142227
 30
0.0
  0
VERTEX
  5
6BB
  8
LAYER_1
 10
-39.34355389283619
 20
6.643032138888449
 30
0.0
  0
VERTEX
  5
6BC
  8
LAYER_1
 10
-39.71850430629686
 20
6.992841274144444
 30
0.0
  0
VERTEX
  5
6BD
  8
LAYER_1
 10
-40.10835478401091
 20
7.344767111534148
 30
0.0
  0
VERTEX
  5
6BE
  8
LAYER_1
 10
-40.50512453174956
 20
7.691486957681494
 30
0.0
  0
VERTEX
  5
6BF
  8
LAYER_1
 10
-40.90083275528404
 20
8.025678119210415
 30
0.0
  0
VERTEX
  5
6C0
  8
LAYER_1
 10
-41.28749866038561
 20
8.340017902744847
 30
0.0
  0
VERTEX
  5
6C1
  8
LAYER_1
 10
-41.77989468222205
 20
8.714629395233185
 30
0.0
  0
VERTEX
  5
6C2
  8
LAYER_1
 10
-42.33332212290787
 20
9.10491058681568
 30
0.0
  0
VERTEX
  5
6C3
  8
LAYER_1
 10
-42.93557509589
 20
9.50343677506428
 30
0.0
  0
VERTEX
  5
6C4
  8
LAYER_1
 10
-43.57444771461539
 20
9.902783257550924
 30
0.0
  0
VERTEX
  5
6C5
  8
LAYER_1
 10
-44.23773409253097
 20
10.29552533184756
 30
0.0
  0
VERTEX
  5
6C6
  8
LAYER_1
 10
-44.91322834308367
 20
10.67423829552613
 30
0.0
  0
VERTEX
  5
6C7
  8
LAYER_1
 10
-45.58872457972044
 20
11.03149744615857
 30
0.0
  0
VERTEX
  5
6C8
  8
LAYER_1
 10
-46.25201691588821
 20
11.35987808131684
 30
0.0
  0
VERTEX
  5
6C9
  8
LAYER_1
 10
-46.9652342022892
 20
11.70000344514847
 30
0.0
  0
VERTEX
  5
6CA
  8
LAYER_1
 10
-47.00253186143583
 20
11.70000344514847
 30
0.0
  0
VERTEX
  5
6CB
  8
LAYER_1
 10
-47.09829664944761
 20
11.7316738683007
 30
0.0
  0
VERTEX
  5
6CC
  8
LAYER_1
 10
-47.27616421416367
 20
11.80781765162415
 30
0.0
  0
VERTEX
  5
6CD
  8
LAYER_1
 10
-47.58800914768837
 20
11.94472153838076
 30
0.0
  0
VERTEX
  5
6CE
  8
LAYER_1
 10
-47.85815789450702
 20
12.05307709397097
 30
0.0
  0
VERTEX
  5
6CF
  8
LAYER_1
 10
-48.06399423466348
 20
12.12434938123921
 30
0.0
  0
VERTEX
  5
6D0
  8
LAYER_1
 10
-48.18290194820162
 20
12.15000346302986
 30
0.0
  0
VERTEX
  5
6D1
  8
LAYER_1
 10
-48.27248637237766
 20
12.15000346302986
 30
0.0
  0
VERTEX
  5
6D2
  8
LAYER_1
 10
-48.91121965290868
 20
11.64375344291329
 30
0.0
  0
VERTEX
  5
6D3
  8
LAYER_1
 10
-49.80036421994626
 20
10.95000341534615
 30
0.0
  0
VERTEX
  5
6D4
  8
LAYER_1
 10
-50.13315783661692
 20
10.68795982080652
 30
0.0
  0
VERTEX
  5
6D5
  8
LAYER_1
 10
-50.58163727862441
 20
10.32123799758868
 30
0.0
  0
VERTEX
  5
6D6
  8
LAYER_1
 10
-51.08874591047328
 20
9.908150969307323
 30
0.0
  0
VERTEX
  5
6D7
  8
LAYER_1
 10
-51.56249906867743
 20
9.534633583870374
 30
0.0
  0
VERTEX
  5
6D8
  8
LAYER_1
 10
-52.16249909251928
 20
9.06416713498372
 30
0.0
  0
VERTEX
  5
6D9
  8
LAYER_1
 10
-52.31249909847975
 20
8.939039689508462
 30
0.0
  0
VERTEX
  5
6DA
  8
LAYER_1
 10
-55.16249921172857
 20
6.674513837072027
 30
0.0
  0
VERTEX
  5
6DB
  8
LAYER_1
 10
-55.27538292413772
 20
6.581008537547191
 30
0.0
  0
VERTEX
  5
6DC
  8
LAYER_1
 10
-55.91249901639839
 20
6.07500322163105
 30
0.0
  0
VERTEX
  5
6DD
  8
LAYER_1
 10
-56.58711533528167
 20
5.536831350459678
 30
0.0
  0
VERTEX
  5
6DE
  8
LAYER_1
 10
-56.73749927431345
 20
5.41115949567957
 30
0.0
  0
VERTEX
  5
6DF
  8
LAYER_1
 10
-58.08749932795763
 20
4.352323110267974
 30
0.0
  0
VERTEX
  5
6E0
  8
LAYER_1
 10
-58.20819647431365
 20
4.257413127951565
 30
0.0
  0
VERTEX
  5
6E1
  8
LAYER_1
 10
-58.65819649219505
 20
3.88806253605469
 30
0.0
  0
VERTEX
  5
6E2
  8
LAYER_1
 10
-59.0780322776511
 20
3.548341225397728
 30
0.0
  0
VERTEX
  5
6E3
  8
LAYER_1
 10
-59.62499938905239
 20
3.116949143016271
 30
0.0
  0
VERTEX
  5
6E4
  8
LAYER_1
 10
-60.26249941438437
 20
2.620276359558275
 30
0.0
  0
VERTEX
  5
6E5
  8
LAYER_1
 10
-60.37538312679352
 20
2.528889718324038
 30
0.0
  0
VERTEX
  5
6E6
  8
LAYER_1
 10
-61.01288315212549
 20
2.026796708395835
 30
0.0
  0
VERTEX
  5
6E7
  8
LAYER_1
 10
-61.53749946504831
 20
1.616090339701898
 30
0.0
  0
VERTEX
  5
6E8
  8
LAYER_1
 10
-61.61249946802855
 20
1.535350734718065
 30
0.0
  0
VERTEX
  5
6E9
  8
LAYER_1
 10
-63.09166069968881
 20
0.3430567181585218
 30
0.0
  0
VERTEX
  5
6EA
  8
LAYER_1
 10
-63.02708011068076
 20
0.3334456799829866
 30
0.0
  0
VERTEX
  5
6EB
  8
LAYER_1
 10
-62.81623568812802
 20
0.343151070966508
 30
0.0
  0
SEQEND
  5
9E8
  8
LAYER_1
  0
POLYLINE
  5
76
  8
LAYER_1
 66
     1
 10
0.0
 20
0.0
 30
0.0
 70
     1
  0
VERTEX
  5
6EC
  8
LAYER_1
 10
-4.199997186660767
 20
0.3393085944614427
 30
0.0
  0
VERTEX
  5
6ED
  8
LAYER_1
 10
-4.199997186660767
 20
0.3565953102264103
 30
0.0
  0
VERTEX
  5
6EE
  8
LAYER_1
 10
-5.662497244775295
 20
1.535350734718065
 30
0.0
  0
VERTEX
  5
6EF
  8
LAYER_1
 10
-5.737497247755527
 20
1.616090339701898
 30
0.0
  0
VERTEX
  5
6F0
  8
LAYER_1
 10
-6.262113560678344
 20
2.026796708395835
 30
0.0
  0
VERTEX
  5
6F1
  8
LAYER_1
 10
-6.899613586010318
 20
2.527271664950476
 30
0.0
  0
VERTEX
  5
6F2
  8
LAYER_1
 10
-7.012497298419476
 20
2.617040252811165
 30
0.0
  0
VERTEX
  5
6F3
  8
LAYER_1
 10
-9.112497381865978
 20
4.286150244337435
 30
0.0
  0
VERTEX
  5
6F4
  8
LAYER_1
 10
-9.637497402727604
 20
4.708493183949756
 30
0.0
  0
VERTEX
  5
6F5
  8
LAYER_1
 10
-11.66249748319387
 20
6.314784703537953
 30
0.0
  0
VERTEX
  5
6F6
  8
LAYER_1
 10
-12.11249750107527
 20
6.672485795276671
 30
0.0
  0
VERTEX
  5
6F7
  8
LAYER_1
 10
-14.96249761432409
 20
8.939039689508462
 30
0.0
  0
VERTEX
  5
6F8
  8
LAYER_1
 10
-15.11249762028456
 20
9.063708658796415
 30
0.0
  0
VERTEX
  5
6F9
  8
LAYER_1
 10
-15.74865513786872
 20
9.562940501598703
 30
0.0
  0
VERTEX
  5
6FA
  8
LAYER_1
 10
-16.2250276724018
 20
9.937631785395402
 30
0.0
  0
VERTEX
  5
6FB
  8
LAYER_1
 10
-16.68765960080761
 20
10.31250339001417
 30
0.0
  0
VERTEX
  5
6FC
  8
LAYER_1
 10
-17.40150213686762
 20
10.88892858997905
 30
0.0
  0
VERTEX
  5
6FD
  8
LAYER_1
 10
-18.33250403101931
 20
11.62017861903631
 30
0.0
  0
VERTEX
  5
6FE
  8
LAYER_1
 10
-19.00251034042618
 20
12.15000346302986
 30
0.0
  0
VERTEX
  5
6FF
  8
LAYER_1
 10
-19.09209476460221
 20
12.15000346302986
 30
0.0
  0
VERTEX
  5
700
  8
LAYER_1
 10
-19.20549792118727
 20
12.1256750220376
 30
0.0
  0
VERTEX
  5
701
  8
LAYER_1
 10
-19.40059049053703
 20
12.06018872975403
 30
0.0
  0
VERTEX
  5
702
  8
LAYER_1
 10
-19.64653595852369
 20
11.964793132219
 30
0.0
  0
VERTEX
  5
703
  8
LAYER_1
 10
-19.91249781101942
 20
11.85073677547236
 30
0.0
  0
VERTEX
  5
704
  8
LAYER_1
 10
-20.43749783188105
 20
11.61981748830263
 30
0.0
  0
VERTEX
  5
705
  8
LAYER_1
 10
-20.92883459913246
 20
11.39812660194097
 30
0.0
  0
VERTEX
  5
706
  8
LAYER_1
 10
-21.43407817400431
 20
11.15554422492904
 30
0.0
  0
VERTEX
  5
707
  8
LAYER_1
 10
-21.94741130354127
 20
10.89524620378393
 30
0.0
  0
VERTEX
  5
708
  8
LAYER_1
 10
-22.46301673478802
 20
10.62040838502273
 30
0.0
  0
VERTEX
  5
709
  8
LAYER_1
 10
-22.97507721478922
 20
10.33420661516251
 30
0.0
  0
VERTEX
  5
70A
  8
LAYER_1
 10
-23.47777549058956
 20
10.03981674072037
 30
0.0
  0
VERTEX
  5
70B
  8
LAYER_1
 10
-23.96529430923372
 20
9.740414608213372
 30
0.0
  0
VERTEX
  5
70C
  8
LAYER_1
 10
-24.43181641776636
 20
9.439176064158616
 30
0.0
  0
VERTEX
  5
70D
  8
LAYER_1
 10
-25.4261348844424
 20
8.779855334846474
 30
0.0
  0
VERTEX
  5
70E
  8
LAYER_1
 10
-25.51931646097973
 20
8.70473341998698
 30
0.0
  0
VERTEX
  5
70F
  8
LAYER_1
 10
-26.06249805539846
 20
8.277110130804715
 30
0.0
  0
VERTEX
  5
710
  8
LAYER_1
 10
-26.51249807327986
 20
7.924608756481945
 30
0.0
  0
VERTEX
  5
711
  8
LAYER_1
 10
-27.34958567144703
 20
7.185584670205614
 30
0.0
  0
VERTEX
  5
712
  8
LAYER_1
 10
-27.7274113440206
 20
6.841071100004307
 30
0.0
  0
VERTEX
  5
713
  8
LAYER_1
 10
-28.1373421079768
 20
6.449349852838438
 30
0.0
  0
VERTEX
  5
714
  8
LAYER_1
 10
-28.52995448540073
 20
6.058607817098124
 30
0.0
  0
VERTEX
  5
715
  8
LAYER_1
 10
-28.85582499837748
 20
5.717031881173483
 30
0.0
  0
VERTEX
  5
716
  8
LAYER_1
 10
-29.52497672714075
 20
4.987503178417683
 30
0.0
  0
VERTEX
  5
717
  8
LAYER_1
 10
-29.70623746726553
 20
4.768398008279789
 30
0.0
  0
VERTEX
  5
718
  8
LAYER_1
 10
-30.00101147651676
 20
4.429884730212635
 30
0.0
  0
VERTEX
  5
719
  8
LAYER_1
 10
-30.1353619231405
 20
4.268741022416279
 30
0.0
  0
VERTEX
  5
71A
  8
LAYER_1
 10
-30.29897308710085
 20
4.048989876508671
 30
0.0
  0
VERTEX
  5
71B
  8
LAYER_1
 10
-30.46979683706878
 20
3.820252360554402
 30
0.0
  0
VERTEX
  5
71C
  8
LAYER_1
 10
-30.62148818196605
 20
3.637503124773502
 30
0.0
  0
VERTEX
  5
71D
  8
LAYER_1
 10
-30.79708706650379
 20
3.414084886076102
 30
0.0
  0
VERTEX
  5
71E
  8
LAYER_1
 10
-31.02539064582005
 20
3.087568703535354
 30
0.0
  0
VERTEX
  5
71F
  8
LAYER_1
 10
-31.17229753376759
 20
2.853554562093336
 30
0.0
  0
VERTEX
  5
720
  8
LAYER_1
 10
-31.2180172158488
 20
2.760304814121874
 30
0.0
  0
VERTEX
  5
721
  8
LAYER_1
 10
-31.24834306071283
 20
2.670933787501077
 30
0.0
  0
VERTEX
  5
722
  8
LAYER_1
 10
-31.26559657139303
 20
2.57647186186917
 30
0.0
  0
VERTEX
  5
723
  8
LAYER_1
 10
-31.27209925092279
 20
2.467949416864375
 30
0.0
  0
VERTEX
  5
724
  8
LAYER_1
 10
-31.26213812866449
 20
2.172844487289026
 30
0.0
  0
VERTEX
  5
725
  8
LAYER_1
 10
-31.23072289754993
 20
1.798402519984579
 30
0.0
  0
VERTEX
  5
726
  8
LAYER_1
 10
-31.21270546875518
 20
1.676035143787175
 30
0.0
  0
VERTEX
  5
727
  8
LAYER_1
 10
-31.19603995937518
 20
1.621044744634133
 30
0.0
  0
VERTEX
  5
728
  8
LAYER_1
 10
-31.15903001768786
 20
1.584034802947883
 30
0.0
  0
VERTEX
  5
729
  8
LAYER_1
 10
-28.31076402462224
 20
1.537698146604356
 30
0.0
  0
VERTEX
  5
72A
  8
LAYER_1
 10
-25.3628480048133
 20
1.472416337766342
 30
0.0
  0
VERTEX
  5
72B
  8
LAYER_1
 10
-22.27499790489674
 20
1.380530697765849
 30
0.0
  0
VERTEX
  5
72C
  8
LAYER_1
 10
-19.08749777823687
 20
1.269699905270883
 30
0.0
  0
VERTEX
  5
72D
  8
LAYER_1
 10
-17.51249771565199
 20
1.199691271376963
 30
0.0
  0
VERTEX
  5
72E
  8
LAYER_1
 10
-15.80531014781445
 20
1.117370417708475
 30
0.0
  0
VERTEX
  5
72F
  8
LAYER_1
 10
-13.91249757260084
 20
1.017760063930993
 30
0.0
  0
VERTEX
  5
730
  8
LAYER_1
 10
-11.88749749213457
 20
0.9058374903789002
 30
0.0
  0
VERTEX
  5
731
  8
LAYER_1
 10
-10.98749745637178
 20
0.8202248574701798
 30
0.0
  0
VERTEX
  5
732
  8
LAYER_1
 10
-9.749997407197952
 20
0.7507189386783324
 30
0.0
  0
VERTEX
  5
733
  8
LAYER_1
 10
-8.527932525774752
 20
0.6773140585758428
 30
0.0
  0
VERTEX
  5
734
  8
LAYER_1
 10
-7.415169783421485
 20
0.6010416928039248
 30
0.0
  0
VERTEX
  5
735
  8
LAYER_1
 10
-6.457320812723315
 20
0.5252514901439289
 30
0.0
  0
VERTEX
  5
736
  8
LAYER_1
 10
-5.699997246265411
 20
0.4532930993772055
 30
0.0
  0
VERTEX
  5
737
  8
LAYER_1
 10
-4.645644843753733
 20
0.3540626069019428
 30
0.0
  0
VERTEX
  5
738
  8
LAYER_1
 10
-4.320240056207984
 20
0.3341128566276697
 30
0.0
  0
VERTEX
  5
739
  8
LAYER_1
 10
-4.231161773456818
 20
0.3333158915248406
 30
0.0
  0
SEQEND
  5
9E9
  8
LAYER_1
  0
POLYLINE
  5
77
  8
LAYER_1
 66
     1
 10
0.0
 20
0.0
 30
0.0
 70
     1
  0
VERTEX
  5
73A
  8
LAYER_1
 10
-35.99999845027924
 20
8.241150758549779
 30
0.0
  0
VERTEX
  5
73B
  8
LAYER_1
 10
-36.01111691594583
 20
21.18750382214785
 30
0.0
  0
VERTEX
  5
73C
  8
LAYER_1
 10
-36.11249845474958
 20
21.83932097947489
 30
0.0
  0
VERTEX
  5
73D
  8
LAYER_1
 10
-36.56249847263098
 20
21.49458519502298
 30
0.0
  0
VERTEX
  5
73E
  8
LAYER_1
 10
-40.21399185836975
 20
18.56250371783972
 30
0.0
  0
VERTEX
  5
73F
  8
LAYER_1
 10
-40.37574524447651
 20
18.45307758990174
 30
0.0
  0
VERTEX
  5
740
  8
LAYER_1
 10
-40.56760077991481
 20
18.30879868318784
 30
0.0
  0
VERTEX
  5
741
  8
LAYER_1
 10
-40.80172741866971
 20
18.11557757649069
 30
0.0
  0
VERTEX
  5
742
  8
LAYER_1
 10
-41.06071095656516
 20
17.89942226768673
 30
0.0
  0
VERTEX
  5
743
  8
LAYER_1
 10
-41.31232882397964
 20
17.70000368356705
 30
0.0
  0
VERTEX
  5
744
  8
LAYER_1
 10
-42.09083928325887
 20
17.09467556562221
 30
0.0
  0
VERTEX
  5
745
  8
LAYER_1
 10
-42.67499871551991
 20
16.62329663787004
 30
0.0
  0
VERTEX
  5
746
  8
LAYER_1
 10
-42.86249872297049
 20
16.46225405261539
 30
0.0
  0
VERTEX
  5
747
  8
LAYER_1
 10
-44.21249877661467
 20
15.41662643676628
 30
0.0
  0
VERTEX
  5
748
  8
LAYER_1
 10
-44.39923241191974
 20
15.24581500801261
 30
0.0
  0
VERTEX
  5
749
  8
LAYER_1
 10
-44.54786160182827
 20
15.12517943645531
 30
0.0
  0
VERTEX
  5
74A
  8
LAYER_1
 10
-44.6061095815797
 20
15.08848166855901
 30
0.0
  0
VERTEX
  5
74B
  8
LAYER_1
 10
-44.6429824216055
 20
15.07500357925892
 30
0.0
  0
VERTEX
  5
74C
  8
LAYER_1
 10
-44.66512081072049
 20
15.07024579040452
 30
0.0
  0
VERTEX
  5
74D
  8
LAYER_1
 10
-44.68325023601184
 20
15.05729141481087
 30
0.0
  0
VERTEX
  5
74E
  8
LAYER_1
 10
-44.6954998476952
 20
15.03811893893225
 30
0.0
  0
VERTEX
  5
74F
  8
LAYER_1
 10
-44.69999879598618
 20
15.01470684922297
 30
0.0
  0
VERTEX
  5
750
  8
LAYER_1
 10
-44.69999879598618
 20
14.95441011918705
 30
0.0
  0
VERTEX
  5
751
  8
LAYER_1
 10
-43.62416333079773
 20
14.13750354200602
 30
0.0
  0
VERTEX
  5
752
  8
LAYER_1
 10
-43.54333103880504
 20
14.06003509751746
 30
0.0
  0
VERTEX
  5
753
  8
LAYER_1
 10
-43.40913385452114
 20
13.95203144399933
 30
0.0
  0
VERTEX
  5
754
  8
LAYER_1
 10
-43.19999873638153
 20
13.80114856078016
 30
0.0
  0
VERTEX
  5
755
  8
LAYER_1
 10
-43.00359247857705
 20
13.65975775175346
 30
0.0
  0
VERTEX
  5
756
  8
LAYER_1
 10
-42.8999987244606
 20
13.57457546810232
 30
0.0
  0
VERTEX
  5
757
  8
LAYER_1
 10
-42.86249872297049
 20
13.52942046767318
 30
0.0
  0
VERTEX
  5
758
  8
LAYER_1
 10
-41.88749868422747
 20
12.78403872005866
 30
0.0
  0
VERTEX
  5
759
  8
LAYER_1
 10
-40.01249860972166
 20
11.34040212028192
 30
0.0
  0
VERTEX
  5
75A
  8
LAYER_1
 10
-39.11249857395887
 20
10.6421472681197
 30
0.0
  0
VERTEX
  5
75B
  8
LAYER_1
 10
-38.66249855607748
 20
10.28967551751079
 30
0.0
  0
VERTEX
  5
75C
  8
LAYER_1
 10
-37.0874984934926
 20
9.071014718604857
 30
0.0
  0
VERTEX
  5
75D
  8
LAYER_1
 10
-36.97281571812147
 20
8.979259025997294
 30
0.0
  0
VERTEX
  5
75E
  8
LAYER_1
 10
-36.32294440139207
 20
8.463257340715879
 30
0.0
  0
VERTEX
  5
75F
  8
LAYER_1
 10
-36.09374845400453
 20
8.29652458899102
 30
0.0
  0
SEQEND
  5
9EA
  8
LAYER_1
  0
POLYLINE
  5
78
  8
LAYER_1
 66
     1
 10
0.0
 20
0.0
 30
0.0
 70
     1
  0
VERTEX
  5
760
  8
LAYER_1
 10
-31.23749826103449
 20
8.23658177947894
 30
0.0
  0
VERTEX
  5
761
  8
LAYER_1
 10
-30.93749824911356
 20
8.474968291724196
 30
0.0
  0
VERTEX
  5
762
  8
LAYER_1
 10
-30.41249822825193
 20
8.891229426253247
 30
0.0
  0
VERTEX
  5
763
  8
LAYER_1
 10
-30.18749821931124
 20
9.069104048537042
 30
0.0
  0
VERTEX
  5
764
  8
LAYER_1
 10
-28.61249815672636
 20
10.28967551751079
 30
0.0
  0
VERTEX
  5
765
  8
LAYER_1
 10
-28.16249813884497
 20
10.64362109896801
 30
0.0
  0
VERTEX
  5
766
  8
LAYER_1
 10
-24.56249799579382
 20
13.4286764726136
 30
0.0
  0
VERTEX
  5
767
  8
LAYER_1
 10
-24.33749798685312
 20
13.61496261374826
 30
0.0
  0
VERTEX
  5
768
  8
LAYER_1
 10
-22.68749792128801
 20
14.86971333057377
 30
0.0
  0
VERTEX
  5
769
  8
LAYER_1
 10
-22.61312485934521
 20
14.93798151253783
 30
0.0
  0
VERTEX
  5
76A
  8
LAYER_1
 10
-22.58613312698964
 20
14.97097526312008
 30
0.0
  0
VERTEX
  5
76B
  8
LAYER_1
 10
-22.57850241245794
 20
15.00241273846301
 30
0.0
  0
VERTEX
  5
76C
  8
LAYER_1
 10
-22.59021195284664
 20
15.03198338211526
 30
0.0
  0
VERTEX
  5
76D
  8
LAYER_1
 10
-22.62124098525233
 20
15.05937663762546
 30
0.0
  0
VERTEX
  5
76E
  8
LAYER_1
 10
-22.76250855059899
 20
15.16215856899689
 30
0.0
  0
VERTEX
  5
76F
  8
LAYER_1
 10
-23.01101509614224
 20
15.35624516187919
 30
0.0
  0
VERTEX
  5
770
  8
LAYER_1
 10
-23.77514100536415
 20
15.97500361502171
 30
0.0
  0
VERTEX
  5
771
  8
LAYER_1
 10
-24.38124885897006
 20
16.4627830493037
 30
0.0
  0
VERTEX
  5
772
  8
LAYER_1
 10
-25.13264280247318
 20
17.05627400658119
 30
0.0
  0
VERTEX
  5
773
  8
LAYER_1
 10
-25.98749805241823
 20
17.7250443817494
 30
0.0
  0
VERTEX
  5
774
  8
LAYER_1
 10
-26.31368359231742
 20
17.99377404383409
 30
0.0
  0
VERTEX
  5
775
  8
LAYER_1
 10
-26.60574430669678
 20
18.22762686943229
 30
0.0
  0
VERTEX
  5
776
  8
LAYER_1
 10
-26.84988505332485
 20
18.41250371187925
 30
0.0
  0
VERTEX
  5
777
  8
LAYER_1
 10
-27.05990097443308
 20
18.56250371783972
 30
0.0
  0
VERTEX
  5
778
  8
LAYER_1
 10
-30.86249824613333
 20
21.61413669746258
 30
0.0
  0
VERTEX
  5
779
  8
LAYER_1
 10
-31.1903742621397
 20
21.89064387837212
 30
0.0
  0
VERTEX
  5
77A
  8
LAYER_1
 10
-31.28167436709084
 20
21.11250381916761
 30
0.0
  0
SEQEND
  5
9EB
  8
LAYER_1
  0
POLYLINE
  5
79
  8
LAYER_1
 66
     1
 10
0.0
 20
0.0
 30
0.0
 70
     1
  0
VERTEX
  5
77B
  8
LAYER_1
 10
36.82500444352627
 20
13.12791117132926
 30
0.0
  0
VERTEX
  5
77C
  8
LAYER_1
 10
37.08227205477385
 20
13.07142104200482
 30
0.0
  0
VERTEX
  5
77D
  8
LAYER_1
 10
37.36693477927135
 20
13.02454013603712
 30
0.0
  0
VERTEX
  5
77E
  8
LAYER_1
 10
37.6443762308112
 20
12.99215023342659
 30
0.0
  0
VERTEX
  5
77F
  8
LAYER_1
 10
37.87998002318581
 20
12.97913311417365
 30
0.0
  0
VERTEX
  5
780
  8
LAYER_1
 10
38.12681327378412
 20
12.98314674920417
 30
0.0
  0
VERTEX
  5
781
  8
LAYER_1
 10
38.36931240962129
 20
12.99908736144318
 30
0.0
  0
VERTEX
  5
782
  8
LAYER_1
 10
38.60546503387955
 20
13.02655746390588
 30
0.0
  0
VERTEX
  5
783
  8
LAYER_1
 10
38.83325874974111
 20
13.06515956960752
 30
0.0
  0
VERTEX
  5
784
  8
LAYER_1
 10
39.05068116038817
 20
13.11449619156332
 30
0.0
  0
VERTEX
  5
785
  8
LAYER_1
 10
39.25571986900296
 20
13.17416984278851
 30
0.0
  0
VERTEX
  5
786
  8
LAYER_1
 10
39.44636247876769
 20
13.24378303629831
 30
0.0
  0
VERTEX
  5
787
  8
LAYER_1
 10
39.62059659286457
 20
13.32293828510795
 30
0.0
  0
VERTEX
  5
788
  8
LAYER_1
 10
39.98471987475918
 20
13.50745351587415
 30
0.0
  0
VERTEX
  5
789
  8
LAYER_1
 10
42.29026004315139
 20
15.04629756115577
 30
0.0
  0
VERTEX
  5
78A
  8
LAYER_1
 10
42.80138237223387
 20
14.98748382905033
 30
0.0
  0
VERTEX
  5
78B
  8
LAYER_1
 10
43.08990927581448
 20
14.9611584817948
 30
0.0
  0
VERTEX
  5
78C
  8
LAYER_1
 10
43.403132107123
 20
14.94479845718964
 30
0.0
  0
VERTEX
  5
78D
  8
LAYER_1
 10
43.7307962128898
 20
14.93816983609306
 30
0.0
  0
VERTEX
  5
78E
  8
LAYER_1
 10
44.06264693984524
 20
14.94103869936328
 30
0.0
  0
VERTEX
  5
78F
  8
LAYER_1
 10
44.38842963471967
 20
14.95317112785848
 30
0.0
  0
VERTEX
  5
790
  8
LAYER_1
 10
44.69788964424347
 20
14.97433320243688
 30
0.0
  0
VERTEX
  5
791
  8
LAYER_1
 10
44.98077231514701
 20
15.00429100395668
 30
0.0
  0
VERTEX
  5
792
  8
LAYER_1
 10
45.22682299416063
 20
15.04281061327607
 30
0.0
  0
VERTEX
  5
793
  8
LAYER_1
 10
45.42515013482671
 20
15.08452121015712
 30
0.0
  0
VERTEX
  5
794
  8
LAYER_1
 10
45.60517878303457
 20
15.13105985842863
 30
0.0
  0
VERTEX
  5
795
  8
LAYER_1
 10
45.76979148335256
 20
15.18368467076661
 30
0.0
  0
VERTEX
  5
796
  8
LAYER_1
 10
45.921870780349
 20
15.24365375984708
 30
0.0
  0
VERTEX
  5
797
  8
LAYER_1
 10
46.06429921859223
 20
15.31222523834603
 30
0.0
  0
VERTEX
  5
798
  8
LAYER_1
 10
46.19995934265061
 20
15.39065721893948
 30
0.0
  0
VERTEX
  5
799
  8
LAYER_1
 10
46.33173369709245
 20
15.48020781430343
 30
0.0
  0
VERTEX
  5
79A
  8
LAYER_1
 10
46.46250482648611
 20
15.58213513711389
 30
0.0
  0
VERTEX
  5
79B
  8
LAYER_1
 10
46.68750483542681
 20
15.76822308162416
 30
0.0
  0
VERTEX
  5
79C
  8
LAYER_1
 10
49.96812893029471
 20
17.92387819015934
 30
0.0
  0
VERTEX
  5
79D
  8
LAYER_1
 10
50.58750499039888
 20
17.8125036880374
 30
0.0
  0
VERTEX
  5
79E
  8
LAYER_1
 10
54.03750512748957
 20
17.81825356311633
 30
0.0
  0
VERTEX
  5
79F
  8
LAYER_1
 10
54.63750515133142
 20
17.97694745412693
 30
0.0
  0
VERTEX
  5
7A0
  8
LAYER_1
 10
55.02670152127433
 20
18.08872511604232
 30
0.0
  0
VERTEX
  5
7A1
  8
LAYER_1
 10
55.35738282363256
 20
18.20415876530272
 30
0.0
  0
VERTEX
  5
7A2
  8
LAYER_1
 10
55.6470650537908
 20
18.33006257720091
 30
0.0
  0
VERTEX
  5
7A3
  8
LAYER_1
 10
55.91326420713378
 20
18.47325072702965
 30
0.0
  0
VERTEX
  5
7A4
  8
LAYER_1
 10
56.06402321823265
 20
18.56250371783972
 30
0.0
  0
VERTEX
  5
7A5
  8
LAYER_1
 10
57.50952237324805
 20
19.63821501645627
 30
0.0
  0
VERTEX
  5
7A6
  8
LAYER_1
 10
57.78750527650118
 20
19.86415755658382
 30
0.0
  0
VERTEX
  5
7A7
  8
LAYER_1
 10
60.34014774004072
 20
21.86250384896994
 30
0.0
  0
VERTEX
  5
7A8
  8
LAYER_1
 10
60.63882657085583
 20
22.08425760507293
 30
0.0
  0
VERTEX
  5
7A9
  8
LAYER_1
 10
60.99670731435115
 20
22.36299666190668
 30
0.0
  0
VERTEX
  5
7AA
  8
LAYER_1
 10
61.43772265863146
 20
22.72175763040491
 30
0.0
  0
VERTEX
  5
7AB
  8
LAYER_1
 10
62.66709120995498
 20
23.73750392347574
 30
0.0
  0
VERTEX
  5
7AC
  8
LAYER_1
 10
63.89187402153979
 20
24.75701355786764
 30
0.0
  0
VERTEX
  5
7AD
  8
LAYER_1
 10
64.49527316564529
 20
25.25606938432514
 30
0.0
  0
VERTEX
  5
7AE
  8
LAYER_1
 10
65.25000557303429
 20
25.8668284075889
 30
0.0
  0
VERTEX
  5
7AF
  8
LAYER_1
 10
66.11250560730696
 20
26.55713364676016
 30
0.0
  0
VERTEX
  5
7B0
  8
LAYER_1
 10
66.41250561922789
 20
26.82280192919151
 30
0.0
  0
VERTEX
  5
7B1
  8
LAYER_1
 10
68.74152546168702
 20
28.68750412017107
 30
0.0
  0
VERTEX
  5
7B2
  8
LAYER_1
 10
69.22701560602258
 20
29.06063821729187
 30
0.0
  0
VERTEX
  5
7B3
  8
LAYER_1
 10
69.59867276369144
 20
29.3519183691864
 30
0.0
  0
VERTEX
  5
7B4
  8
LAYER_1
 10
69.81047934433903
 20
29.52825468310367
 30
0.0
  0
VERTEX
  5
7B5
  8
LAYER_1
 10
70.01014308934828
 20
29.69537713804028
 30
0.0
  0
VERTEX
  5
7B6
  8
LAYER_1
 10
70.35260576984405
 20
29.96450482047071
 30
0.0
  0
VERTEX
  5
7B7
  8
LAYER_1
 10
70.5428208179654
 20
30.12705405299442
 30
0.0
  0
VERTEX
  5
7B8
  8
LAYER_1
 10
70.75592619823885
 20
30.33643798216426
 30
0.0
  0
VERTEX
  5
7B9
  8
LAYER_1
 10
70.98116202332577
 20
30.57966222368948
 30
0.0
  0
VERTEX
  5
7BA
  8
LAYER_1
 10
71.20776840588749
 20
30.84373239327932
 30
0.0
  0
VERTEX
  5
7BB
  8
LAYER_1
 10
71.42498545858541
 20
31.11565410664304
 30
0.0
  0
VERTEX
  5
7BC
  8
LAYER_1
 10
71.62205329408087
 20
31.3824329794899
 30
0.0
  0
VERTEX
  5
7BD
  8
LAYER_1
 10
71.78821202503525
 20
31.63107462752915
 30
0.0
  0
VERTEX
  5
7BE
  8
LAYER_1
 10
71.91270176410993
 20
31.84858466647002
 30
0.0
  0
VERTEX
  5
7BF
  8
LAYER_1
 10
71.98657270836989
 20
32.01288181877422
 30
0.0
  0
VERTEX
  5
7C0
  8
LAYER_1
 10
72.07125721067486
 20
32.23026473017079
 30
0.0
  0
VERTEX
  5
7C1
  8
LAYER_1
 10
72.15630269142335
 20
32.47243261828513
 30
0.0
  0
VERTEX
  5
7C2
  8
LAYER_1
 10
72.2312565710138
 20
32.71108470074269
 30
0.0
  0
VERTEX
  5
7C3
  8
LAYER_1
 10
72.39228417297969
 20
33.26250430196524
 30
0.0
  0
VERTEX
  5
7C4
  8
LAYER_1
 10
72.46812422700683
 20
36.07820326381263
 30
0.0
  0
VERTEX
  5
7C5
  8
LAYER_1
 10
72.3801958821089
 20
36.80785386782556
 30
0.0
  0
VERTEX
  5
7C6
  8
LAYER_1
 10
72.30169614347398
 20
37.39160139751296
 30
0.0
  0
VERTEX
  5
7C7
  8
LAYER_1
 10
72.20619975440385
 20
37.98291559525582
 30
0.0
  0
VERTEX
  5
7C8
  8
LAYER_1
 10
72.0944222213044
 20
38.57863224353474
 30
0.0
  0
VERTEX
  5
7C9
  8
LAYER_1
 10
71.9670790505815
 20
39.1755871248303
 30
0.0
  0
VERTEX
  5
7CA
  8
LAYER_1
 10
71.82488574864101
 20
39.7706160216231
 30
0.0
  0
VERTEX
  5
7CB
  8
LAYER_1
 10
71.66855782188884
 20
40.36055471639371
 30
0.0
  0
VERTEX
  5
7CC
  8
LAYER_1
 10
71.4988107767308
 20
40.94223899162274
 30
0.0
  0
VERTEX
  5
7CD
  8
LAYER_1
 10
71.31636011957283
 20
41.51250462979078
 30
0.0
  0
VERTEX
  5
7CE
  8
LAYER_1
 10
71.17478855076509
 20
41.91102208547056
 30
0.0
  0
VERTEX
  5
7CF
  8
LAYER_1
 10
71.01127075321446
 20
42.32705091983695
 30
0.0
  0
VERTEX
  5
7D0
  8
LAYER_1
 10
70.82703889757215
 20
42.7584587465594
 30
0.0
  0
VERTEX
  5
7D1
  8
LAYER_1
 10
70.62332515448932
 20
43.20311317930734
 30
0.0
  0
VERTEX
  5
7D2
  8
LAYER_1
 10
70.40136169461715
 20
43.65888183175018
 30
0.0
  0
VERTEX
  5
7D3
  8
LAYER_1
 10
70.16238068860679
 20
44.12363231755738
 30
0.0
  0
VERTEX
  5
7D4
  8
LAYER_1
 10
69.90761430710944
 20
44.59523225039835
 30
0.0
  0
VERTEX
  5
7D5
  8
LAYER_1
 10
69.63829472077627
 20
45.07154924394254
 30
0.0
  0
VERTEX
  5
7D6
  8
LAYER_1
 10
69.35565410025845
 20
45.55045091185938
 30
0.0
  0
VERTEX
  5
7D7
  8
LAYER_1
 10
69.06092461620716
 20
46.02980486781829
 30
0.0
  0
VERTEX
  5
7D8
  8
LAYER_1
 10
68.75533843927357
 20
46.5074787254887
 30
0.0
  0
VERTEX
  5
7D9
  8
LAYER_1
 10
68.44012774010885
 20
46.98134009854006
 30
0.0
  0
VERTEX
  5
7DA
  8
LAYER_1
 10
68.11652468936418
 20
47.4492566006418
 30
0.0
  0
VERTEX
  5
7DB
  8
LAYER_1
 10
67.78576145769074
 20
47.90909584546333
 30
0.0
  0
VERTEX
  5
7DC
  8
LAYER_1
 10
67.44907021573968
 20
48.35872544667411
 30
0.0
  0
VERTEX
  5
7DD
  8
LAYER_1
 10
67.10768313416222
 20
48.79601301794355
 30
0.0
  0
VERTEX
  5
7DE
  8
LAYER_1
 10
66.84450590327378
 20
49.11708412682216
 30
0.0
  0
VERTEX
  5
7DF
  8
LAYER_1
 10
66.56198657871033
 20
49.44516351670956
 30
0.0
  0
VERTEX
  5
7E0
  8
LAYER_1
 10
66.26224428410669
 20
49.77831171746465
 30
0.0
  0
VERTEX
  5
7E1
  8
LAYER_1
 10
65.9473981430977
 20
50.11458925894642
 30
0.0
  0
VERTEX
  5
7E2
  8
LAYER_1
 10
65.61956727931819
 20
50.45205667101377
 30
0.0
  0
VERTEX
  5
7E3
  8
LAYER_1
 10
65.28087081640301
 20
50.78877448352565
 30
0.0
  0
VERTEX
  5
7E4
  8
LAYER_1
 10
64.93342787798701
 20
51.12280322634101
 30
0.0
  0
VERTEX
  5
7E5
  8
LAYER_1
 10
64.579357587705
 20
51.45220342931876
 30
0.0
  0
VERTEX
  5
7E6
  8
LAYER_1
 10
64.22077906919183
 20
51.77503562231787
 30
0.0
  0
VERTEX
  5
7E7
  8
LAYER_1
 10
63.85981144608235
 20
52.08936033519726
 30
0.0
  0
VERTEX
  5
7E8
  8
LAYER_1
 10
63.49857384201137
 20
52.39323809781587
 30
0.0
  0
VERTEX
  5
7E9
  8
LAYER_1
 10
63.13918538061374
 20
52.68472944003265
 30
0.0
  0
VERTEX
  5
7EA
  8
LAYER_1
 10
62.7837651855243
 20
52.96189489170654
 30
0.0
  0
VERTEX
  5
7EB
  8
LAYER_1
 10
62.43443238037788
 20
53.22279498269646
 30
0.0
  0
VERTEX
  5
7EC
  8
LAYER_1
 10
62.09330608880934
 20
53.46549024286136
 30
0.0
  0
VERTEX
  5
7ED
  8
LAYER_1
 10
61.76250543445349
 20
53.68804120206019
 30
0.0
  0
VERTEX
  5
7EE
  8
LAYER_1
 10
61.01250540465117
 20
54.17698814713503
 30
0.0
  0
VERTEX
  5
7EF
  8
LAYER_1
 10
60.48750538378954
 20
54.51842751684859
 30
0.0
  0
VERTEX
  5
7F0
  8
LAYER_1
 10
59.62500534951687
 20
54.9271060209974
 30
0.0
  0
VERTEX
  5
7F1
  8
LAYER_1
 10
59.03523026351692
 20
55.19244991171836
 30
0.0
  0
VERTEX
  5
7F2
  8
LAYER_1
 10
58.44788864687145
 20
55.42807424182747
 30
0.0
  0
VERTEX
  5
7F3
  8
LAYER_1
 10
57.86032202674607
 20
55.63471685804901
 30
0.0
  0
VERTEX
  5
7F4
  8
LAYER_1
 10
57.26987193030639
 20
55.81311560710721
 30
0.0
  0
VERTEX
  5
7F5
  8
LAYER_1
 10
56.67387988471801
 20
55.96400833572632
 30
0.0
  0
VERTEX
  5
7F6
  8
LAYER_1
 10
56.06968741714655
 20
56.08813289063057
 30
0.0
  0
VERTEX
  5
7F7
  8
LAYER_1
 10
55.45463605475762
 20
56.18622711854422
 30
0.0
  0
VERTEX
  5
7F8
  8
LAYER_1
 10
54.82606732471683
 20
56.2590288661915
 30
0.0
  0
VERTEX
  5
7F9
  8
LAYER_1
 10
54.38275770422219
 20
56.2896967953
 30
0.0
  0
VERTEX
  5
7FA
  8
LAYER_1
 10
53.93101147212683
 20
56.29863486468922
 30
0.0
  0
VERTEX
  5
7FB
  8
LAYER_1
 10
53.47212609948575
 20
56.28618193851487
 30
0.0
  0
VERTEX
  5
7FC
  8
LAYER_1
 10
53.00739905735392
 20
56.25267688093268
 30
0.0
  0
VERTEX
  5
7FD
  8
LAYER_1
 10
52.53812781678631
 20
56.19845855609836
 30
0.0
  0
VERTEX
  5
7FE
  8
LAYER_1
 10
52.06560984883789
 20
56.12386582816764
 30
0.0
  0
VERTEX
  5
7FF
  8
LAYER_1
 10
51.59114262456366
 20
56.02923756129621
 30
0.0
  0
VERTEX
  5
800
  8
LAYER_1
 10
51.11602361501858
 20
55.91491261963981
 30
0.0
  0
VERTEX
  5
801
  8
LAYER_1
 10
50.64155029125762
 20
55.78122986735413
 30
0.0
  0
VERTEX
  5
802
  8
LAYER_1
 10
50.16902012433577
 20
55.62852816859493
 30
0.0
  0
VERTEX
  5
803
  8
LAYER_1
 10
49.69973058530799
 20
55.45714638751789
 30
0.0
  0
VERTEX
  5
804
  8
LAYER_1
 10
49.23497914522927
 20
55.26742338827874
 30
0.0
  0
VERTEX
  5
805
  8
LAYER_1
 10
48.77606327515458
 20
55.0596980350332
 30
0.0
  0
VERTEX
  5
806
  8
LAYER_1
 10
48.32428044613891
 20
54.83430919193698
 30
0.0
  0
VERTEX
  5
807
  8
LAYER_1
 10
47.8809281292372
 20
54.59159572314581
 30
0.0
  0
VERTEX
  5
808
  8
LAYER_1
 10
47.44730379550447
 20
54.33189649281539
 30
0.0
  0
VERTEX
  5
809
  8
LAYER_1
 10
46.85710270193795
 20
53.96250512450933
 30
0.0
  0
VERTEX
  5
80A
  8
LAYER_1
 10
44.5875047519803
 20
52.45329858107696
 30
0.0
  0
VERTEX
  5
80B
  8
LAYER_1
 10
44.17500473558903
 20
52.16463747501108
 30
0.0
  0
VERTEX
  5
80C
  8
LAYER_1
 10
42.97500468790531
 20
51.31151612814402
 30
0.0
  0
VERTEX
  5
80D
  8
LAYER_1
 10
42.18750465661287
 20
50.74705588734285
 30
0.0
  0
VERTEX
  5
80E
  8
LAYER_1
 10
39.48750454932451
 20
48.70519113143669
 30
0.0
  0
VERTEX
  5
80F
  8
LAYER_1
 10
38.43750450760126
 20
47.96809870775957
 30
0.0
  0
VERTEX
  5
810
  8
LAYER_1
 10
37.42500446736813
 20
47.21986429585938
 30
0.0
  0
VERTEX
  5
811
  8
LAYER_1
 10
36.39047317625955
 20
46.43880790561682
 30
0.0
  0
VERTEX
  5
812
  8
LAYER_1
 10
35.32500438392162
 20
45.61166107770192
 30
0.0
  0
VERTEX
  5
813
  8
LAYER_1
 10
34.23750434070826
 20
44.75169227144463
 30
0.0
  0
VERTEX
  5
814
  8
LAYER_1
 10
34.08750433474779
 20
44.58228399265501
 30
0.0
  0
VERTEX
  5
815
  8
LAYER_1
 10
32.58750427514315
 20
43.32479914045031
 30
0.0
  0
VERTEX
  5
816
  8
LAYER_1
 10
32.51250427216291
 20
43.22643587509424
 30
0.0
  0
VERTEX
  5
817
  8
LAYER_1
 10
32.06250425428152
 20
42.82578444190116
 30
0.0
  0
VERTEX
  5
818
  8
LAYER_1
 10
31.269064255404
 20
42.11456884731207
 30
0.0
  0
VERTEX
  5
819
  8
LAYER_1
 10
30.57831855368807
 20
41.48455581534503
 30
0.0
  0
VERTEX
  5
81A
  8
LAYER_1
 10
29.97974801259851
 20
40.92539594985613
 30
0.0
  0
VERTEX
  5
81B
  8
LAYER_1
 10
29.46283349560009
 20
40.42673985470142
 30
0.0
  0
VERTEX
  5
81C
  8
LAYER_1
 10
29.01705586615761
 20
39.97823813373701
 30
0.0
  0
VERTEX
  5
81D
  8
LAYER_1
 10
28.63189598773581
 20
39.56954139081896
 30
0.0
  0
VERTEX
  5
81E
  8
LAYER_1
 10
28.2968347237995
 20
39.19030022980334
 30
0.0
  0
VERTEX
  5
81F
  8
LAYER_1
 10
28.00135293781344
 20
38.83016525454624
 30
0.0
  0
VERTEX
  5
820
  8
LAYER_1
 10
27.55709063144879
 20
38.24962651069574
 30
0.0
  0
VERTEX
  5
821
  8
LAYER_1
 10
27.11135055464197
 20
37.63302760234075
 30
0.0
  0
VERTEX
  5
822
  8
LAYER_1
 10
26.66519804902851
 20
36.98204381135483
 30
0.0
  0
VERTEX
  5
823
  8
LAYER_1
 10
26.219698456244
 20
36.29835041961159
 30
0.0
  0
VERTEX
  5
824
  8
LAYER_1
 10
25.77591711792398
 20
35.58362270898461
 30
0.0
  0
VERTEX
  5
825
  8
LAYER_1
 10
25.33491937570403
 20
34.83953596134748
 30
0.0
  0
VERTEX
  5
826
  8
LAYER_1
 10
24.89777057121971
 20
34.06776545857377
 30
0.0
  0
VERTEX
  5
827
  8
LAYER_1
 10
24.46553604610658
 20
33.26998648253708
 30
0.0
  0
VERTEX
  5
828
  8
LAYER_1
 10
24.14356812701416
 20
32.66250427812338
 30
0.0
  0
VERTEX
  5
829
  8
LAYER_1
 10
23.61274838664252
 20
31.50000423192978
 30
0.0
  0
VERTEX
  5
82A
  8
LAYER_1
 10
23.133512443287
 20
30.41461356380023
 30
0.0
  0
VERTEX
  5
82B
  8
LAYER_1
 10
22.72671332127331
 20
29.43750414997339
 30
0.0
  0
VERTEX
  5
82C
  8
LAYER_1
 10
21.93877730040301
 20
27.41726992971773
 30
0.0
  0
VERTEX
  5
82D
  8
LAYER_1
 10
21.69460818865786
 20
26.76490158287119
 30
0.0
  0
VERTEX
  5
82E
  8
LAYER_1
 10
21.51179805200314
 20
26.25000402331352
 30
0.0
  0
VERTEX
  5
82F
  8
LAYER_1
 10
21.2930536193175
 20
25.61250399798155
 30
0.0
  0
VERTEX
  5
830
  8
LAYER_1
 10
20.60928573689587
 20
23.13750389963388
 30
0.0
  0
VERTEX
  5
831
  8
LAYER_1
 10
20.57089741421129
 20
23.00625389441848
 30
0.0
  0
VERTEX
  5
832
  8
LAYER_1
 10
20.56175389229345
 20
22.94296637515954
 30
0.0
  0
VERTEX
  5
833
  8
LAYER_1
 10
20.56789235712484
 20
22.92016337876409
 30
0.0
  0
VERTEX
  5
834
  8
LAYER_1
 10
20.58195744637726
 20
22.90260248652719
 30
0.0
  0
VERTEX
  5
835
  8
LAYER_1
 10
20.63622691982772
 20
22.88125180053664
 30
0.0
  0
VERTEX
  5
836
  8
LAYER_1
 10
20.7292811560098
 20
22.87500388920307
 30
0.0
  0
VERTEX
  5
837
  8
LAYER_1
 10
20.92605322049288
 20
22.87500388920307
 30
0.0
  0
VERTEX
  5
838
  8
LAYER_1
 10
21.95677855708315
 20
23.12859750612157
 30
0.0
  0
VERTEX
  5
839
  8
LAYER_1
 10
22.88300958392902
 20
23.36827387800624
 30
0.0
  0
VERTEX
  5
83A
  8
LAYER_1
 10
23.66250392049551
 20
23.58840688452432
 30
0.0
  0
VERTEX
  5
83B
  8
LAYER_1
 10
24.3375039473176
 20
23.79462264600861
 30
0.0
  0
VERTEX
  5
83C
  8
LAYER_1
 10
26.8875040486455
 20
24.7364634584597
 30
0.0
  0
VERTEX
  5
83D
  8
LAYER_1
 10
28.08750409632921
 20
25.25359082467114
 30
0.0
  0
VERTEX
  5
83E
  8
LAYER_1
 10
30.63750419765711
 20
26.55182946231368
 30
0.0
  0
VERTEX
  5
83F
  8
LAYER_1
 10
31.28940801631083
 20
26.94466676442029
 30
0.0
  0
VERTEX
  5
840
  8
LAYER_1
 10
32.69065501273369
 20
27.79914944274871
 30
0.0
  0
VERTEX
  5
841
  8
LAYER_1
 10
33.09547754064207
 20
28.05650884788388
 30
0.0
  0
VERTEX
  5
842
  8
LAYER_1
 10
33.33677144787133
 20
28.22161499908742
 30
0.0
  0
VERTEX
  5
843
  8
LAYER_1
 10
33.98147138089377
 20
28.70068774296837
 30
0.0
  0
VERTEX
  5
844
  8
LAYER_1
 10
34.17516921672872
 20
28.86051805099755
 30
0.0
  0
VERTEX
  5
845
  8
LAYER_1
 10
34.30804897460795
 20
28.99794476666076
 30
0.0
  0
VERTEX
  5
846
  8
LAYER_1
 10
34.35752973271147
 20
29.06546000788049
 30
0.0
  0
VERTEX
  5
847
  8
LAYER_1
 10
34.3988231614028
 20
29.13601822763917
 30
0.0
  0
VERTEX
  5
848
  8
LAYER_1
 10
34.46620428398463
 20
29.29778877161393
 30
0.0
  0
VERTEX
  5
849
  8
LAYER_1
 10
34.52890484922477
 20
29.50630673626623
 30
0.0
  0
VERTEX
  5
84A
  8
LAYER_1
 10
34.60563736399459
 20
29.78462245927722
 30
0.0
  0
VERTEX
  5
84B
  8
LAYER_1
 10
34.86769520427609
 20
30.6754858234726
 30
0.0
  0
VERTEX
  5
84C
  8
LAYER_1
 10
35.19143471083574
 20
31.72500424087048
 30
0.0
  0
VERTEX
  5
84D
  8
LAYER_1
 10
35.55909904035104
 20
32.88750428706408
 30
0.0
  0
VERTEX
  5
84E
  8
LAYER_1
 10
35.71628827152865
 20
33.26250430196524
 30
0.0
  0
VERTEX
  5
84F
  8
LAYER_1
 10
36.11341984881712
 20
34.38750434666872
 30
0.0
  0
VERTEX
  5
850
  8
LAYER_1
 10
36.73065880416529
 20
36.09958631563518
 30
0.0
  0
VERTEX
  5
851
  8
LAYER_1
 10
36.94655031977897
 20
36.66744618790384
 30
0.0
  0
VERTEX
  5
852
  8
LAYER_1
 10
37.08921811352738
 20
37.01250445097685
 30
0.0
  0
VERTEX
  5
853
  8
LAYER_1
 10
37.57495280770541
 20
38.12362024105897
 30
0.0
  0
VERTEX
  5
854
  8
LAYER_1
 10
37.81981398275897
 20
38.70693174731004
 30
0.0
  0
VERTEX
  5
855
  8
LAYER_1
 10
37.99847830397644
 20
39.15000453591347
 30
0.0
  0
VERTEX
  5
856
  8
LAYER_1
 10
38.18671602235084
 20
39.63750455528498
 30
0.0
  0
VERTEX
  5
857
  8
LAYER_1
 10
39.32011322517671
 20
42.18750465661287
 30
0.0
  0
VERTEX
  5
858
  8
LAYER_1
 10
39.91744107344724
 20
43.38750470429659
 30
0.0
  0
VERTEX
  5
859
  8
LAYER_1
 10
39.95802307385684
 20
43.4330232119419
 30
0.0
  0
VERTEX
  5
85A
  8
LAYER_1
 10
40.62276384735347
 20
43.30891587449432
 30
0.0
  0
VERTEX
  5
85B
  8
LAYER_1
 10
40.99348909339292
 20
43.23301895413458
 30
0.0
  0
VERTEX
  5
85C
  8
LAYER_1
 10
41.39078676009646
 20
43.13953227094377
 30
0.0
  0
VERTEX
  5
85D
  8
LAYER_1
 10
41.80459413860592
 20
43.03143867001198
 30
0.0
  0
VERTEX
  5
85E
  8
LAYER_1
 10
42.2248485200631
 20
42.91172099642928
 30
0.0
  0
VERTEX
  5
85F
  8
LAYER_1
 10
42.64148719560982
 20
42.78336209528575
 30
0.0
  0
VERTEX
  5
860
  8
LAYER_1
 10
43.0444474563879
 20
42.64934481167149
 30
0.0
  0
VERTEX
  5
861
  8
LAYER_1
 10
43.42366659353915
 20
42.51265199067656
 30
0.0
  0
VERTEX
  5
862
  8
LAYER_1
 10
43.76908189820537
 20
42.37626647739103
 30
0.0
  0
VERTEX
  5
863
  8
LAYER_1
 10
44.13479916046724
 20
42.21906626232554
 30
0.0
  0
VERTEX
  5
864
  8
LAYER_1
 10
44.50447434118706
 20
42.05021174594267
 30
0.0
  0
VERTEX
  5
865
  8
LAYER_1
 10
44.87677618435032
 20
41.87052648366167
 30
0.0
  0
VERTEX
  5
866
  8
LAYER_1
 10
45.25037343394251
 20
41.68083403090181
 30
0.0
  0
VERTEX
  5
867
  8
LAYER_1
 10
45.62393483394914
 20
41.48195794308234
 30
0.0
  0
VERTEX
  5
868
  8
LAYER_1
 10
45.99612912835569
 20
41.27472177562252
 30
0.0
  0
VERTEX
  5
869
  8
LAYER_1
 10
46.36562506114765
 20
41.05994908394163
 30
0.0
  0
VERTEX
  5
86A
  8
LAYER_1
 10
46.73109137631052
 20
40.8384634234589
 30
0.0
  0
VERTEX
  5
86B
  8
LAYER_1
 10
47.09119681782978
 20
40.61108834959362
 30
0.0
  0
VERTEX
  5
86C
  8
LAYER_1
 10
47.44461012969093
 20
40.37864741776502
 30
0.0
  0
VERTEX
  5
86D
  8
LAYER_1
 10
47.79000005587946
 20
40.14196418339238
 30
0.0
  0
VERTEX
  5
86E
  8
LAYER_1
 10
48.12603534038087
 20
39.90186220189495
 30
0.0
  0
VERTEX
  5
86F
  8
LAYER_1
 10
48.45138472718064
 20
39.65916502869199
 30
0.0
  0
VERTEX
  5
870
  8
LAYER_1
 10
48.76471696026426
 20
39.41469621920277
 30
0.0
  0
VERTEX
  5
871
  8
LAYER_1
 10
49.06470078361723
 20
39.16927932884654
 30
0.0
  0
VERTEX
  5
872
  8
LAYER_1
 10
49.35000494122505
 20
38.92373791304256
 30
0.0
  0
VERTEX
  5
873
  8
LAYER_1
 10
50.21250497549772
 20
38.16128485641499
 30
0.0
  0
VERTEX
  5
874
  8
LAYER_1
 10
50.57122486342853
 20
37.81287551819489
 30
0.0
  0
VERTEX
  5
875
  8
LAYER_1
 10
50.11048145165692
 20
37.58029298392432
 30
0.0
  0
VERTEX
  5
876
  8
LAYER_1
 10
49.66945655288232
 20
37.37094015653427
 30
0.0
  0
VERTEX
  5
877
  8
LAYER_1
 10
49.25612148086944
 20
37.1942077685935
 30
0.0
  0
VERTEX
  5
878
  8
LAYER_1
 10
48.86250492185354
 20
37.04070508753327
 30
0.0
  0
VERTEX
  5
879
  8
LAYER_1
 10
45.78750479966402
 20
35.49233327848852
 30
0.0
  0
VERTEX
  5
87A
  8
LAYER_1
 10
44.96250476688147
 20
35.05042929894192
 30
0.0
  0
VERTEX
  5
87B
  8
LAYER_1
 10
44.02500472962856
 20
34.50736922974774
 30
0.0
  0
VERTEX
  5
87C
  8
LAYER_1
 10
43.56038557054126
 20
34.22870467214254
 30
0.0
  0
VERTEX
  5
87D
  8
LAYER_1
 10
42.98836406343617
 20
33.87141228674433
 30
0.0
  0
VERTEX
  5
87E
  8
LAYER_1
 10
42.38153786744806
 20
33.48150716905138
 30
0.0
  0
VERTEX
  5
87F
  8
LAYER_1
 10
41.81250464171171
 20
33.10500441456199
 30
0.0
  0
VERTEX
  5
880
  8
LAYER_1
 10
40.53750459104776
 20
32.2456996685704
 30
0.0
  0
VERTEX
  5
881
  8
LAYER_1
 10
39.86250456422567
 20
31.71755330785815
 30
0.0
  0
VERTEX
  5
882
  8
LAYER_1
 10
39.53059535510281
 20
31.45112360970339
 30
0.0
  0
VERTEX
  5
883
  8
LAYER_1
 10
39.19649841847345
 20
31.17013363887499
 30
0.0
  0
VERTEX
  5
884
  8
LAYER_1
 10
38.8633226832178
 20
30.87793612240081
 30
0.0
  0
VERTEX
  5
885
  8
LAYER_1
 10
38.53417707821606
 20
30.57788378730871
 30
0.0
  0
VERTEX
  5
886
  8
LAYER_1
 10
38.21217053234842
 20
30.27332936062655
 30
0.0
  0
VERTEX
  5
887
  8
LAYER_1
 10
37.9004119744951
 20
29.96762556938219
 30
0.0
  0
VERTEX
  5
888
  8
LAYER_1
 10
37.60201033353629
 20
29.66412514060351
 30
0.0
  0
VERTEX
  5
889
  8
LAYER_1
 10
37.3200745383522
 20
29.36618080131835
 30
0.0
  0
VERTEX
  5
88A
  8
LAYER_1
 10
37.05771351782303
 20
29.07714527855458
 30
0.0
  0
VERTEX
  5
88B
  8
LAYER_1
 10
36.81803620082897
 20
28.80037129934007
 30
0.0
  0
VERTEX
  5
88C
  8
LAYER_1
 10
36.60415151625025
 20
28.53921159070267
 30
0.0
  0
VERTEX
  5
88D
  8
LAYER_1
 10
36.41916839296705
 20
28.29701887967025
 30
0.0
  0
VERTEX
  5
88E
  8
LAYER_1
 10
36.26619575985958
 20
28.07714589327068
 30
0.0
  0
VERTEX
  5
88F
  8
LAYER_1
 10
36.14834254580804
 20
27.8829453585318
 30
0.0
  0
VERTEX
  5
890
  8
LAYER_1
 10
36.06871767969264
 20
27.71777000248148
 30
0.0
  0
VERTEX
  5
891
  8
LAYER_1
 10
36.04421241738605
 20
27.64711449366074
 30
0.0
  0
VERTEX
  5
892
  8
LAYER_1
 10
36.03043009039357
 20
27.58497255214759
 30
0.0
  0
VERTEX
  5
893
  8
LAYER_1
 10
35.93838430677684
 20
26.96250405162573
 30
0.0
  0
VERTEX
  5
894
  8
LAYER_1
 10
35.91612546464524
 20
26.75422537817214
 30
0.0
  0
VERTEX
  5
895
  8
LAYER_1
 10
35.9052568181051
 20
26.51978469634374
 30
0.0
  0
VERTEX
  5
896
  8
LAYER_1
 10
35.90637861314333
 20
26.28789999181088
 30
0.0
  0
VERTEX
  5
897
  8
LAYER_1
 10
35.92009109574684
 20
26.0872892502439
 30
0.0
  0
VERTEX
  5
898
  8
LAYER_1
 10
35.96907996455118
 20
25.66207446674343
 30
0.0
  0
VERTEX
  5
899
  8
LAYER_1
 10
35.15683078201434
 20
24.96622758308081
 30
0.0
  0
VERTEX
  5
89A
  8
LAYER_1
 10
34.85003071025545
 20
24.69731745716928
 30
0.0
  0
VERTEX
  5
89B
  8
LAYER_1
 10
34.55083897493012
 20
24.42314650418766
 30
0.0
  0
VERTEX
  5
89C
  8
LAYER_1
 10
34.26074524671809
 20
24.14555411225193
 30
0.0
  0
VERTEX
  5
89D
  8
LAYER_1
 10
33.98123919629913
 20
23.86637966947806
 30
0.0
  0
VERTEX
  5
89E
  8
LAYER_1
 10
33.71381049435296
 20
23.58746256398203
 30
0.0
  0
VERTEX
  5
89F
  8
LAYER_1
 10
33.45994881155933
 20
23.31064218387983
 30
0.0
  0
VERTEX
  5
8A0
  8
LAYER_1
 10
33.22114381859799
 20
23.03775791728744
 30
0.0
  0
VERTEX
  5
8A1
  8
LAYER_1
 10
32.99888518614868
 20
22.77064915232084
 30
0.0
  0
VERTEX
  5
8A2
  8
LAYER_1
 10
32.79466258489115
 20
22.511155277096
 30
0.0
  0
VERTEX
  5
8A3
  8
LAYER_1
 10
32.60996568550513
 20
22.26111567972892
 30
0.0
  0
VERTEX
  5
8A4
  8
LAYER_1
 10
32.44628415867039
 20
22.02236974833556
 30
0.0
  0
VERTEX
  5
8A5
  8
LAYER_1
 10
32.30510767506665
 20
21.79675687103192
 30
0.0
  0
VERTEX
  5
8A6
  8
LAYER_1
 10
32.18792590537367
 20
21.58611643593398
 30
0.0
  0
VERTEX
  5
8A7
  8
LAYER_1
 10
32.09622852027118
 20
21.3922878311577
 30
0.0
  0
VERTEX
  5
8A8
  8
LAYER_1
 10
32.03150519043895
 20
21.21711044481908
 30
0.0
  0
VERTEX
  5
8A9
  8
LAYER_1
 10
31.99524558655669
 20
21.0624236650341
 30
0.0
  0
VERTEX
  5
8AA
  8
LAYER_1
 10
31.9761401253966
 20
20.89199620789789
 30
0.0
  0
VERTEX
  5
8AB
  8
LAYER_1
 10
31.97020619814911
 20
20.72347572407111
 30
0.0
  0
VERTEX
  5
8AC
  8
LAYER_1
 10
31.97752593061233
 20
20.5567012982013
 30
0.0
  0
VERTEX
  5
8AD
  8
LAYER_1
 10
31.99818144858438
 20
20.39151201493596
 30
0.0
  0
VERTEX
  5
8AE
  8
LAYER_1
 10
32.03225487786336
 20
20.22774695892262
 30
0.0
  0
VERTEX
  5
8AF
  8
LAYER_1
 10
32.07982834424739
 20
20.06524521480879
 30
0.0
  0
VERTEX
  5
8B0
  8
LAYER_1
 10
32.14098397353458
 20
19.903845867242
 30
0.0
  0
VERTEX
  5
8B1
  8
LAYER_1
 10
32.21580389152305
 20
19.74338800086976
 30
0.0
  0
VERTEX
  5
8B2
  8
LAYER_1
 10
32.30437022401091
 20
19.5837107003396
 30
0.0
  0
VERTEX
  5
8B3
  8
LAYER_1
 10
32.40676509679627
 20
19.42465305029904
 30
0.0
  0
VERTEX
  5
8B4
  8
LAYER_1
 10
32.52307063567725
 20
19.26605413539558
 30
0.0
  0
VERTEX
  5
8B5
  8
LAYER_1
 10
32.65336896645196
 20
19.10775304027675
 30
0.0
  0
VERTEX
  5
8B6
  8
LAYER_1
 10
32.7977422149185
 20
18.94958884959008
 30
0.0
  0
VERTEX
  5
8B7
  8
LAYER_1
 10
32.956272506875
 20
18.79140064798307
 30
0.0
  0
VERTEX
  5
8B8
  8
LAYER_1
 10
33.12904196811957
 20
18.63302752010325
 30
0.0
  0
VERTEX
  5
8B9
  8
LAYER_1
 10
33.31613272445031
 20
18.47430855059814
 30
0.0
  0
VERTEX
  5
8BA
  8
LAYER_1
 10
33.8238980161502
 20
18.05888992826128
 30
0.0
  0
VERTEX
  5
8BB
  8
LAYER_1
 10
33.78787341094751
 20
18.000600892612
 30
0.0
  0
VERTEX
  5
8BC
  8
LAYER_1
 10
33.74759860942812
 20
17.97402635548211
 30
0.0
  0
VERTEX
  5
8BD
  8
LAYER_1
 10
33.66457006158766
 20
17.94475910214983
 30
0.0
  0
VERTEX
  5
8BE
  8
LAYER_1
 10
33.55090110356437
 20
17.91635098808536
 30
0.0
  0
VERTEX
  5
8BF
  8
LAYER_1
 10
33.41870507149649
 20
17.89235386875889
 30
0.0
  0
VERTEX
  5
8C0
  8
LAYER_1
 10
33.26436170746429
 20
17.86089011007217
 30
0.0
  0
VERTEX
  5
8C1
  8
LAYER_1
 10
33.12499497816415
 20
17.81575820093802
 30
0.0
  0
VERTEX
  5
8C2
  8
LAYER_1
 10
33.00233167552245
 20
17.75830166212667
 30
0.0
  0
VERTEX
  5
8C3
  8
LAYER_1
 10
32.89809859146555
 20
17.68986401440836
 30
0.0
  0
VERTEX
  5
8C4
  8
LAYER_1
 10
32.81402251791984
 20
17.61178877855331
 30
0.0
  0
VERTEX
  5
8C5
  8
LAYER_1
 10
32.75183024681168
 20
17.52541947533177
 30
0.0
  0
VERTEX
  5
8C6
  8
LAYER_1
 10
32.71324857006744
 20
17.43209962551395
 30
0.0
  0
VERTEX
  5
8C7
  8
LAYER_1
 10
32.70000427961349
 20
17.3331727498701
 30
0.0
  0
VERTEX
  5
8C8
  8
LAYER_1
 10
32.70986707165082
 20
17.16770678597635
 30
0.0
  0
VERTEX
  5
8C9
  8
LAYER_1
 10
32.73892750406183
 20
16.99204602633143
 30
0.0
  0
VERTEX
  5
8CA
  8
LAYER_1
 10
32.78639366129514
 20
16.80743578655609
 30
0.0
  0
VERTEX
  5
8CB
  8
LAYER_1
 10
32.85147362779929
 20
16.61512138227111
 30
0.0
  0
VERTEX
  5
8CC
  8
LAYER_1
 10
32.93337548802286
 20
16.41634812909722
 30
0.0
  0
VERTEX
  5
8CD
  8
LAYER_1
 10
33.03130732641445
 20
16.21236134265517
 30
0.0
  0
VERTEX
  5
8CE
  8
LAYER_1
 10
33.14447722742263
 20
16.00440633856573
 30
0.0
  0
VERTEX
  5
8CF
  8
LAYER_1
 10
33.27209327549596
 20
15.79372843244964
 30
0.0
  0
VERTEX
  5
8D0
  8
LAYER_1
 10
33.41336355508304
 20
15.58157293992766
 30
0.0
  0
VERTEX
  5
8D1
  8
LAYER_1
 10
33.56749615063242
 20
15.36918517662054
 30
0.0
  0
VERTEX
  5
8D2
  8
LAYER_1
 10
33.7336991465927
 20
15.15781045814903
 30
0.0
  0
VERTEX
  5
8D3
  8
LAYER_1
 10
33.91118062741246
 20
14.94869410013389
 30
0.0
  0
VERTEX
  5
8D4
  8
LAYER_1
 10
34.09914867754026
 20
14.74308141819586
 30
0.0
  0
VERTEX
  5
8D5
  8
LAYER_1
 10
34.29681138142469
 20
14.54221772795571
 30
0.0
  0
VERTEX
  5
8D6
  8
LAYER_1
 10
34.50337682351432
 20
14.34734834503418
 30
0.0
  0
VERTEX
  5
8D7
  8
LAYER_1
 10
34.71805308825773
 20
14.15971858505203
 30
0.0
  0
VERTEX
  5
8D8
  8
LAYER_1
 10
34.91016726861234
 20
14.01375216593479
 30
0.0
  0
VERTEX
  5
8D9
  8
LAYER_1
 10
35.14188928649093
 20
13.86321346654841
 30
0.0
  0
VERTEX
  5
8DA
  8
LAYER_1
 10
35.40359447156779
 20
13.71281584022772
 30
0.0
  0
VERTEX
  5
8DB
  8
LAYER_1
 10
35.68565815351721
 20
13.56727264030758
 30
0.0
  0
VERTEX
  5
8DC
  8
LAYER_1
 10
35.97845566201348
 20
13.43129722012282
 30
0.0
  0
VERTEX
  5
8DD
  8
LAYER_1
 10
36.27236232673089
 20
13.30960293300828
 30
0.0
  0
VERTEX
  5
8DE
  8
LAYER_1
 10
36.55775347734372
 20
13.20690313229882
 30
0.0
  0
SEQEND
  5
9EC
  8
LAYER_1
  0
POLYLINE
  5
7A
  8
LAYER_1
 66
     1
 10
0.0
 20
0.0
 30
0.0
 70
     1
  0
VERTEX
  5
8DF
  8
LAYER_1
 10
-5.00974997838405
 20
20.86875380948186
 30
0.0
  0
VERTEX
  5
8E0
  8
LAYER_1
 10
-4.565361843585222
 20
20.32500378787518
 30
0.0
  0
VERTEX
  5
8E1
  8
LAYER_1
 10
-4.418689123959254
 20
20.32500378787518
 30
0.0
  0
VERTEX
  5
8E2
  8
LAYER_1
 10
-4.356913441572127
 20
20.3298401092375
 30
0.0
  0
VERTEX
  5
8E3
  8
LAYER_1
 10
-4.291339784898366
 20
20.34420228742169
 30
0.0
  0
VERTEX
  5
8E4
  8
LAYER_1
 10
-4.149495350448232
 20
20.40062349883894
 30
0.0
  0
VERTEX
  5
8E5
  8
LAYER_1
 10
-3.99454942412344
 20
20.49250599129348
 30
0.0
  0
VERTEX
  5
8E6
  8
LAYER_1
 10
-3.827895609438575
 20
20.61808833395186
 30
0.0
  0
VERTEX
  5
8E7
  8
LAYER_1
 10
-3.650927509908223
 20
20.77560909598063
 30
0.0
  0
VERTEX
  5
8E8
  8
LAYER_1
 10
-3.465038729046971
 20
20.96330684654634
 30
0.0
  0
VERTEX
  5
8E9
  8
LAYER_1
 10
-3.271622870369404
 20
21.17942015481555
 30
0.0
  0
VERTEX
  5
8EA
  8
LAYER_1
 10
-3.072073537390107
 20
21.42218758995481
 30
0.0
  0
VERTEX
  5
8EB
  8
LAYER_1
 10
-2.867784333623668
 20
21.68984772113067
 30
0.0
  0
VERTEX
  5
8EC
  8
LAYER_1
 10
-2.660148862584671
 20
21.98063911750968
 30
0.0
  0
VERTEX
  5
8ED
  8
LAYER_1
 10
-2.450560727787703
 20
22.2928003482584
 30
0.0
  0
VERTEX
  5
8EE
  8
LAYER_1
 10
-2.240413532747351
 20
22.62456998254337
 30
0.0
  0
VERTEX
  5
8EF
  8
LAYER_1
 10
-2.031100880978199
 20
22.97418658953116
 30
0.0
  0
VERTEX
  5
8F0
  8
LAYER_1
 10
-1.824016375994834
 20
23.33988873838831
 30
0.0
  0
VERTEX
  5
8F1
  8
LAYER_1
 10
-1.620553621311842
 20
23.71991499828138
 30
0.0
  0
VERTEX
  5
8F2
  8
LAYER_1
 10
-1.422106220443808
 20
24.1125039383769
 30
0.0
  0
VERTEX
  5
8F3
  8
LAYER_1
 10
-0.9067719312647995
 20
25.16250398010015
 30
0.0
  0
VERTEX
  5
8F4
  8
LAYER_1
 10
-0.8302179388138882
 20
25.5000039935112
 30
0.0
  0
VERTEX
  5
8F5
  8
LAYER_1
 10
-0.7958381115260079
 20
25.67127284065491
 30
0.0
  0
VERTEX
  5
8F6
  8
LAYER_1
 10
-0.7719812174061937
 20
25.83354781909527
 30
0.0
  0
VERTEX
  5
8F7
  8
LAYER_1
 10
-0.7585983890898221
 20
25.98404118980102
 30
0.0
  0
VERTEX
  5
8F8
  8
LAYER_1
 10
-0.7556407592122696
 20
26.1199652137409
 30
0.0
  0
VERTEX
  5
8F9
  8
LAYER_1
 10
-0.7630594604089126
 20
26.23853215188367
 30
0.0
  0
VERTEX
  5
8FA
  8
LAYER_1
 10
-0.7808056253151276
 20
26.33695426519805
 30
0.0
  0
VERTEX
  5
8FB
  8
LAYER_1
 10
-0.8088303865662912
 20
26.41244381465281
 30
0.0
  0
VERTEX
  5
8FC
  8
LAYER_1
 10
-0.8470848767977799
 20
26.46221306121667
 30
0.0
  0
VERTEX
  5
8FD
  8
LAYER_1
 10
-0.9441727040254762
 20
26.54278880120555
 30
0.0
  0
VERTEX
  5
8FE
  8
LAYER_1
 10
-1.803334914795741
 20
26.72878719673247
 30
0.0
  0
VERTEX
  5
8FF
  8
LAYER_1
 10
-2.189094517969949
 20
26.81758821240119
 30
0.0
  0
VERTEX
  5
900
  8
LAYER_1
 10
-2.572195363606559
 20
26.91624931076429
 30
0.0
  0
VERTEX
  5
901
  8
LAYER_1
 10
-2.950724755755835
 20
27.02414396888931
 30
0.0
  0
VERTEX
  5
902
  8
LAYER_1
 10
-3.32276999846804
 20
27.14064566384377
 30
0.0
  0
VERTEX
  5
903
  8
LAYER_1
 10
-3.686418395793438
 20
27.26512787269518
 30
0.0
  0
VERTEX
  5
904
  8
LAYER_1
 10
-4.039757251782293
 20
27.39696407251108
 30
0.0
  0
VERTEX
  5
905
  8
LAYER_1
 10
-4.380873870484868
 20
27.53552774035897
 30
0.0
  0
VERTEX
  5
906
  8
LAYER_1
 10
-4.707855555951426
 20
27.6801923533064
 30
0.0
  0
VERTEX
  5
907
  8
LAYER_1
 10
-5.335045079788188
 20
27.96995475916923
 30
0.0
  0
VERTEX
  5
908
  8
LAYER_1
 10
-6.398771198044528
 20
28.68121407065797
 30
0.0
  0
VERTEX
  5
909
  8
LAYER_1
 10
-6.819956113065885
 20
28.9672937240991
 30
0.0
  0
VERTEX
  5
90A
  8
LAYER_1
 10
-7.243635969666484
 20
29.26432994938335
 30
0.0
  0
VERTEX
  5
90B
  8
LAYER_1
 10
-7.676417507606713
 20
29.57730837870769
 30
0.0
  0
VERTEX
  5
90C
  8
LAYER_1
 10
-8.124907466646958
 20
29.91121464426911
 30
0.0
  0
VERTEX
  5
90D
  8
LAYER_1
 10
-9.095439607069055
 20
30.66175321289103
 30
0.0
  0
VERTEX
  5
90E
  8
LAYER_1
 10
-10.20808630901588
 20
31.5558307128249
 30
0.0
  0
VERTEX
  5
90F
  8
LAYER_1
 10
-10.55367520636348
 20
31.83750424534082
 30
0.0
  0
VERTEX
  5
910
  8
LAYER_1
 10
-11.32599113658735
 20
32.4750042706728
 30
0.0
  0
VERTEX
  5
911
  8
LAYER_1
 10
-12.41997311495646
 20
33.36605310283316
 30
0.0
  0
VERTEX
  5
912
  8
LAYER_1
 10
-13.4738453531949
 20
34.20385004204808
 30
0.0
  0
VERTEX
  5
913
  8
LAYER_1
 10
-14.34826675381322
 20
34.87906295687925
 30
0.0
  0
VERTEX
  5
914
  8
LAYER_1
 10
-14.67463929704939
 20
35.12153411407647
 30
0.0
  0
VERTEX
  5
915
  8
LAYER_1
 10
-14.90389621932199
 20
35.28235971588838
 30
0.0
  0
VERTEX
  5
916
  8
LAYER_1
 10
-15.52499763667583
 20
35.70943372071297
 30
0.0
  0
VERTEX
  5
917
  8
LAYER_1
 10
-15.86249765008688
 20
35.94930195926715
 30
0.0
  0
VERTEX
  5
918
  8
LAYER_1
 10
-17.43749771267176
 20
37.02314469716877
 30
0.0
  0
VERTEX
  5
919
  8
LAYER_1
 10
-21.2624978646636
 20
39.27841146185753
 30
0.0
  0
VERTEX
  5
91A
  8
LAYER_1
 10
-26.88749808818102
 20
42.61134876833611
 30
0.0
  0
VERTEX
  5
91B
  8
LAYER_1
 10
-27.48749811202288
 20
43.02193715075039
 30
0.0
  0
VERTEX
  5
91C
  8
LAYER_1
 10
-28.00419540646328
 20
43.3810603992687
 30
0.0
  0
VERTEX
  5
91D
  8
LAYER_1
 10
-28.48242262537024
 20
43.72598468458574
 30
0.0
  0
VERTEX
  5
91E
  8
LAYER_1
 10
-28.92589170087157
 20
44.06081984635966
 30
0.0
  0
VERTEX
  5
91F
  8
LAYER_1
 10
-29.3383145650951
 20
44.38967572424862
 30
0.0
  0
VERTEX
  5
920
  8
LAYER_1
 10
-29.72340315016863
 20
44.71666215791079
 30
0.0
  0
VERTEX
  5
921
  8
LAYER_1
 10
-30.08486938822
 20
45.04588898700433
 30
0.0
  0
VERTEX
  5
922
  8
LAYER_1
 10
-30.42642521137701
 20
45.38146605118741
 30
0.0
  0
VERTEX
  5
923
  8
LAYER_1
 10
-30.75178255176749
 20
45.72750319011819
 30
0.0
  0
VERTEX
  5
924
  8
LAYER_1
 10
-31.06465334151925
 20
46.08811024345484
 30
0.0
  0
VERTEX
  5
925
  8
LAYER_1
 10
-31.36874951276012
 20
46.4673970508555
 30
0.0
  0
VERTEX
  5
926
  8
LAYER_1
 10
-31.66778299761792
 20
46.86947345197835
 30
0.0
  0
VERTEX
  5
927
  8
LAYER_1
 10
-31.96546572822045
 20
47.29844928648156
 30
0.0
  0
VERTEX
  5
928
  8
LAYER_1
 10
-32.26550963669555
 20
47.75843439402328
 30
0.0
  0
VERTEX
  5
929
  8
LAYER_1
 10
-32.57162665517103
 20
48.25353861426167
 30
0.0
  0
VERTEX
  5
92A
  8
LAYER_1
 10
-32.88752871577471
 20
48.78787178685491
 30
0.0
  0
VERTEX
  5
92B
  8
LAYER_1
 10
-33.2169277506344
 20
49.36554375146116
 30
0.0
  0
VERTEX
  5
92C
  8
LAYER_1
 10
-33.45733242786768
 20
49.79358257808853
 30
0.0
  0
VERTEX
  5
92D
  8
LAYER_1
 10
-33.25701751640188
 20
50.22804378573383
 30
0.0
  0
VERTEX
  5
92E
  8
LAYER_1
 10
-32.92429535887995
 20
50.96250500530005
 30
0.0
  0
VERTEX
  5
92F
  8
LAYER_1
 10
-32.53261173636987
 20
51.82500503957272
 30
0.0
  0
VERTEX
  5
930
  8
LAYER_1
 10
-32.14368942568609
 20
52.68624710420686
 30
0.0
  0
VERTEX
  5
931
  8
LAYER_1
 10
-31.81495199720023
 20
53.45199556732098
 30
0.0
  0
VERTEX
  5
932
  8
LAYER_1
 10
-31.54615723758116
 20
54.12296645622161
 30
0.0
  0
VERTEX
  5
933
  8
LAYER_1
 10
-31.33706293349776
 20
54.6998757982153
 30
0.0
  0
VERTEX
  5
934
  8
LAYER_1
 10
-31.18742687161889
 20
55.18343962060857
 30
0.0
  0
VERTEX
  5
935
  8
LAYER_1
 10
-31.13482998984018
 20
55.39044072048836
 30
0.0
  0
VERTEX
  5
936
  8
LAYER_1
 10
-31.09700683861345
 20
55.57437395070798
 30
0.0
  0
VERTEX
  5
937
  8
LAYER_1
 10
-31.07392714127228
 20
55.73532881468077
 30
0.0
  0
VERTEX
  5
938
  8
LAYER_1
 10
-31.0655606211503
 20
55.87339481582004
 30
0.0
  0
VERTEX
  5
939
  8
LAYER_1
 10
-31.07187700158111
 20
55.98866145753911
 30
0.0
  0
VERTEX
  5
93A
  8
LAYER_1
 10
-31.09284600589832
 20
56.0812182432513
 30
0.0
  0
VERTEX
  5
93B
  8
LAYER_1
 10
-31.13955080686096
 20
56.16686247441356
 30
0.0
  0
VERTEX
  5
93C
  8
LAYER_1
 10
-31.22982175806057
 20
56.26970070996963
 30
0.0
  0
VERTEX
  5
93D
  8
LAYER_1
 10
-31.37133500021511
 20
56.39535261156211
 30
0.0
  0
VERTEX
  5
93E
  8
LAYER_1
 10
-31.57176667404258
 20
56.54943784083356
 30
0.0
  0
VERTEX
  5
93F
  8
LAYER_1
 10
-31.83879292026093
 20
56.73757605942655
 30
0.0
  0
VERTEX
  5
940
  8
LAYER_1
 10
-32.18008987958815
 20
56.96538692898365
 30
0.0
  0
VERTEX
  5
941
  8
LAYER_1
 10
-33.11620050044107
 20
57.56250526756048
 30
0.0
  0
VERTEX
  5
942
  8
LAYER_1
 10
-34.65168244217773
 20
58.5375053063035
 30
0.0
  0
VERTEX
  5
943
  8
LAYER_1
 10
-36.05355711297675
 20
59.4332034682713
 30
0.0
  0
VERTEX
  5
944
  8
LAYER_1
 10
-37.25624850019813
 20
60.20195349881868
 30
0.0
  0
VERTEX
  5
945
  8
LAYER_1
 10
-38.49374854937196
 20
60.99805727770101
 30
0.0
  0
VERTEX
  5
946
  8
LAYER_1
 10
-39.69500710348755
 20
61.76680730824839
 30
0.0
  0
VERTEX
  5
947
  8
LAYER_1
 10
-41.20885573874923
 20
62.73750547319651
 30
0.0
  0
VERTEX
  5
948
  8
LAYER_1
 10
-43.28884731501879
 20
64.0753980011063
 30
0.0
  0
VERTEX
  5
949
  8
LAYER_1
 10
-45.50608129542169
 20
65.5003980577307
 30
0.0
  0
VERTEX
  5
94A
  8
LAYER_1
 10
-47.6284391567043
 20
66.86250563710928
 30
0.0
  0
VERTEX
  5
94B
  8
LAYER_1
 10
-49.37235675859669
 20
67.98204592480354
 30
0.0
  0
VERTEX
  5
94C
  8
LAYER_1
 10
-50.456249024719
 20
68.67579595237069
 30
0.0
  0
VERTEX
  5
94D
  8
LAYER_1
 10
-52.38749910145998
 20
69.91396066642352
 30
0.0
  0
VERTEX
  5
94E
  8
LAYER_1
 10
-53.47499914467335
 20
70.60395962667022
 30
0.0
  0
VERTEX
  5
94F
  8
LAYER_1
 10
-53.81249915808439
 20
70.8089629330718
 30
0.0
  0
VERTEX
  5
950
  8
LAYER_1
 10
-54.97499920427799
 20
71.55011581999335
 30
0.0
  0
VERTEX
  5
951
  8
LAYER_1
 10
-56.03197664620561
 20
72.21804144542921
 30
0.0
  0
VERTEX
  5
952
  8
LAYER_1
 10
-56.94077340980225
 20
72.78313729941704
 30
0.0
  0
VERTEX
  5
953
  8
LAYER_1
 10
-57.74404756913291
 20
73.27500589191914
 30
0.0
  0
VERTEX
  5
954
  8
LAYER_1
 10
-57.93693234670223
 20
73.27500589191914
 30
0.0
  0
VERTEX
  5
955
  8
LAYER_1
 10
-58.07800274878669
 20
73.2610824099431
 30
0.0
  0
VERTEX
  5
956
  8
LAYER_1
 10
-58.23345481531979
 20
73.21943114239912
 30
0.0
  0
VERTEX
  5
957
  8
LAYER_1
 10
-58.40308798404819
 20
73.1502308568634
 30
0.0
  0
VERTEX
  5
958
  8
LAYER_1
 10
-58.58670169271856
 20
73.05366032091219
 30
0.0
  0
VERTEX
  5
959
  8
LAYER_1
 10
-58.78409537907754
 20
72.92989830212167
 30
0.0
  0
VERTEX
  5
95A
  8
LAYER_1
 10
-58.99506848087181
 20
72.77912356806804
 30
0.0
  0
VERTEX
  5
95B
  8
LAYER_1
 10
-59.21942043584803
 20
72.60151488632755
 30
0.0
  0
VERTEX
  5
95C
  8
LAYER_1
 10
-59.45695068175286
 20
72.39725102447639
 30
0.0
  0
VERTEX
  5
95D
  8
LAYER_1
 10
-59.70745865633296
 20
72.16651075009078
 30
0.0
  0
VERTEX
  5
95E
  8
LAYER_1
 10
-59.970743797335
 20
71.90947283074692
 30
0.0
  0
VERTEX
  5
95F
  8
LAYER_1
 10
-60.24660554250563
 20
71.62631603402102
 30
0.0
  0
VERTEX
  5
960
  8
LAYER_1
 10
-60.53484332959152
 20
71.3172191274893
 30
0.0
  0
VERTEX
  5
961
  8
LAYER_1
 10
-60.83525659633933
 20
70.98236087872797
 30
0.0
  0
VERTEX
  5
962
  8
LAYER_1
 10
-61.14764478049574
 20
70.62192005531324
 30
0.0
  0
VERTEX
  5
963
  8
LAYER_1
 10
-61.80754365202094
 20
69.82500575482845
 30
0.0
  0
VERTEX
  5
964
  8
LAYER_1
 10
-62.14003478900911
 20
69.41250573843718
 30
0.0
  0
VERTEX
  5
965
  8
LAYER_1
 10
-62.85967197750189
 20
68.43750569969416
 30
0.0
  0
VERTEX
  5
966
  8
LAYER_1
 10
-63.21253957831848
 20
67.94944903967553
 30
0.0
  0
VERTEX
  5
967
  8
LAYER_1
 10
-63.64133837672167
 20
67.3413337811362
 30
0.0
  0
VERTEX
  5
968
  8
LAYER_1
 10
-64.51010962504745
 20
66.07500560581684
 30
0.0
  0
VERTEX
  5
969
  8
LAYER_1
 10
-65.44091008410024
 20
64.68750555068254
 30
0.0
  0
VERTEX
  5
96A
  8
LAYER_1
 10
-66.20173222804729
 20
63.48750550299883
 30
0.0
  0
VERTEX
  5
96B
  8
LAYER_1
 10
-67.96716195510731
 20
60.56754944083622
 30
0.0
  0
VERTEX
  5
96C
  8
LAYER_1
 10
-68.0093515624934
 20
60.45252740933265
 30
0.0
  0
VERTEX
  5
96D
  8
LAYER_1
 10
-68.08685537736518
 20
60.2941837215192
 30
0.0
  0
VERTEX
  5
96E
  8
LAYER_1
 10
-68.21394935594024
 20
60.07500536739826
 30
0.0
  0
VERTEX
  5
96F
  8
LAYER_1
 10
-68.40315730255523
 20
59.75724844011762
 30
0.0
  0
VERTEX
  5
970
  8
LAYER_1
 10
-68.64529382833628
 20
59.33028779969148
 30
0.0
  0
VERTEX
  5
971
  8
LAYER_1
 10
-69.28068333750605
 20
58.16250529140234
 30
0.0
  0
VERTEX
  5
972
  8
LAYER_1
 10
-69.68153365002635
 20
57.41250526160002
 30
0.0
  0
VERTEX
  5
973
  8
LAYER_1
 10
-71.15856103497096
 20
54.41250514239073
 30
0.0
  0
VERTEX
  5
974
  8
LAYER_1
 10
-71.55891843043001
 20
53.52606181275848
 30
0.0
  0
VERTEX
  5
975
  8
LAYER_1
 10
-71.95789708326585
 20
52.54428342095021
 30
0.0
  0
VERTEX
  5
976
  8
LAYER_1
 10
-72.27327016561406
 20
51.73409264985527
 30
0.0
  0
VERTEX
  5
977
  8
LAYER_1
 10
-72.53729451552488
 20
50.98367221279624
 30
0.0
  0
VERTEX
  5
978
  8
LAYER_1
 10
-72.64964608185092
 20
50.63266944498304
 30
0.0
  0
VERTEX
  5
979
  8
LAYER_1
 10
-72.74867466430919
 20
50.29876155122223
 30
0.0
  0
VERTEX
  5
97A
  8
LAYER_1
 10
-72.83421832931357
 20
49.98266596169495
 30
0.0
  0
VERTEX
  5
97B
  8
LAYER_1
 10
-72.9061151432779
 20
49.68510010658233
 30
0.0
  0
VERTEX
  5
97C
  8
LAYER_1
 10
-72.96420317261605
 20
49.40678141606551
 30
0.0
  0
VERTEX
  5
97D
  8
LAYER_1
 10
-73.00832048374187
 20
49.14842732032564
 30
0.0
  0
VERTEX
  5
97E
  8
LAYER_1
 10
-73.03830514306924
 20
48.91075524954385
 30
0.0
  0
VERTEX
  5
97F
  8
LAYER_1
 10
-73.05399521701199
 20
48.69448263390129
 30
0.0
  0
VERTEX
  5
980
  8
LAYER_1
 10
-73.05522877198402
 20
48.50032690357908
 30
0.0
  0
VERTEX
  5
981
  8
LAYER_1
 10
-73.04184387439916
 20
48.32900548875837
 30
0.0
  0
VERTEX
  5
982
  8
LAYER_1
 10
-73.0136785906713
 20
48.1812358196203
 30
0.0
  0
VERTEX
  5
983
  8
LAYER_1
 10
-72.97057098721429
 20
48.05773532634599
 30
0.0
  0
VERTEX
  5
984
  8
LAYER_1
 10
-72.89114205191461
 20
47.88340780272105
 30
0.0
  0
VERTEX
  5
985
  8
LAYER_1
 10
-72.05182095070644
 20
47.40178378845464
 30
0.0
  0
VERTEX
  5
986
  8
LAYER_1
 10
-70.31249981373549
 20
46.42015065831731
 30
0.0
  0
VERTEX
  5
987
  8
LAYER_1
 10
-69.4124997779727
 20
45.92014154244637
 30
0.0
  0
VERTEX
  5
988
  8
LAYER_1
 10
-69.1335453150637
 20
45.76264378855997
 30
0.0
  0
VERTEX
  5
989
  8
LAYER_1
 10
-68.34604528377126
 20
45.33087240932257
 30
0.0
  0
VERTEX
  5
98A
  8
LAYER_1
 10
-67.53749970346689
 20
44.8868475818589
 30
0.0
  0
VERTEX
  5
98B
  8
LAYER_1
 10
-66.84429595236097
 20
44.4979210364681
 30
0.0
  0
VERTEX
  5
98C
  8
LAYER_1
 10
-66.17104519734453
 20
44.12945320895739
 30
0.0
  0
VERTEX
  5
98D
  8
LAYER_1
 10
-65.66249962896109
 20
43.85376043092494
 30
0.0
  0
VERTEX
  5
98E
  8
LAYER_1
 10
-64.61249958723783
 20
43.27465545494321
 30
0.0
  0
VERTEX
  5
98F
  8
LAYER_1
 10
-62.96249952167273
 20
42.37383900572944
 30
0.0
  0
VERTEX
  5
990
  8
LAYER_1
 10
-61.79999947547913
 20
41.73824842776619
 30
0.0
  0
VERTEX
  5
991
  8
LAYER_1
 10
-60.67499943077564
 20
41.121692954194
 30
0.0
  0
VERTEX
  5
992
  8
LAYER_1
 10
-59.73749939352274
 20
40.61293719741251
 30
0.0
  0
VERTEX
  5
993
  8
LAYER_1
 10
-58.98749936372042
 20
40.20077680629545
 30
0.0
  0
VERTEX
  5
994
  8
LAYER_1
 10
-58.10395378042958
 20
39.7197795542431
 30
0.0
  0
VERTEX
  5
995
  8
LAYER_1
 10
-57.33749929815531
 20
39.30000454187393
 30
0.0
  0
VERTEX
  5
996
  8
LAYER_1
 10
-56.57104481588103
 20
38.88022952950476
 30
0.0
  0
VERTEX
  5
997
  8
LAYER_1
 10
-55.6874992325902
 20
38.39923227745236
 30
0.0
  0
VERTEX
  5
998
  8
LAYER_1
 10
-54.93749920278788
 20
37.98707188633529
 30
0.0
  0
VERTEX
  5
999
  8
LAYER_1
 10
-53.99999916553497
 20
37.4783161295539
 30
0.0
  0
VERTEX
  5
99A
  8
LAYER_1
 10
-52.87499912083149
 20
36.86084818977301
 30
0.0
  0
VERTEX
  5
99B
  8
LAYER_1
 10
-51.78749907761812
 20
36.26438489582048
 30
0.0
  0
VERTEX
  5
99C
  8
LAYER_1
 10
-51.00125739720716
 20
35.83720435732465
 30
0.0
  0
VERTEX
  5
99D
  8
LAYER_1
 10
-50.17499901354313
 20
35.37811373106759
 30
0.0
  0
VERTEX
  5
99E
  8
LAYER_1
 10
-49.34999898076057
 20
34.92818252622699
 30
0.0
  0
VERTEX
  5
99F
  8
LAYER_1
 10
-48.18749893456697
 20
34.28732757405548
 30
0.0
  0
VERTEX
  5
9A0
  8
LAYER_1
 10
-47.09999889135361
 20
33.69007671772594
 30
0.0
  0
VERTEX
  5
9A1
  8
LAYER_1
 10
-46.46249886602163
 20
33.33918023447069
 30
0.0
  0
VERTEX
  5
9A2
  8
LAYER_1
 10
-46.03220874333861
 20
33.08998213438026
 30
0.0
  0
VERTEX
  5
9A3
  8
LAYER_1
 10
-45.63589684435101
 20
32.8868572729141
 30
0.0
  0
VERTEX
  5
9A4
  8
LAYER_1
 10
-45.4638408897992
 20
32.80891426086504
 30
0.0
  0
VERTEX
  5
9A5
  8
LAYER_1
 10
-45.31630928443872
 20
32.75009990351194
 30
0.0
  0
VERTEX
  5
9A6
  8
LAYER_1
 10
-45.19864529269204
 20
32.71295098253476
 30
0.0
  0
VERTEX
  5
9A7
  8
LAYER_1
 10
-45.11619217898166
 20
32.70000427961349
 30
0.0
  0
VERTEX
  5
9A8
  8
LAYER_1
 10
-45.02245914226417
 20
32.7085905063205
 30
0.0
  0
VERTEX
  5
9A9
  8
LAYER_1
 10
-44.91408835373745
 20
32.73196884636432
 30
0.0
  0
VERTEX
  5
9AA
  8
LAYER_1
 10
-44.80450237115323
 20
32.76656878962918
 30
0.0
  0
VERTEX
  5
9AB
  8
LAYER_1
 10
-44.70712375226319
 20
32.80881982599928
 30
0.0
  0
VERTEX
  5
9AC
  8
LAYER_1
 10
-44.49669768892812
 20
32.91763537238506
 30
0.0
  0
VERTEX
  5
9AD
  8
LAYER_1
 10
-43.94971253357353
 20
33.50256985356643
 30
0.0
  0
VERTEX
  5
9AE
  8
LAYER_1
 10
-43.43999568211385
 20
34.06989633669632
 30
0.0
  0
VERTEX
  5
9AF
  8
LAYER_1
 10
-42.98261304463425
 20
34.61249669490284
 30
0.0
  0
VERTEX
  5
9B0
  8
LAYER_1
 10
-42.56249871104956
 20
35.13748905505793
 30
0.0
  0
VERTEX
  5
9B1
  8
LAYER_1
 10
-40.70951855959737
 20
37.61250447481871
 30
0.0
  0
VERTEX
  5
9B2
  8
LAYER_1
 10
-40.62817803334856
 20
37.81504680397121
 30
0.0
  0
VERTEX
  5
9B3
  8
LAYER_1
 10
-37.98749852925539
 20
37.71882568252275
 30
0.0
  0
VERTEX
  5
9B4
  8
LAYER_1
 10
-37.57499851286411
 20
37.67865895300692
 30
0.0
  0
VERTEX
  5
9B5
  8
LAYER_1
 10
-37.1288939796118
 20
37.62704478773295
 30
0.0
  0
VERTEX
  5
9B6
  8
LAYER_1
 10
-36.67161945474577
 20
37.5588266199811
 30
0.0
  0
VERTEX
  5
9B7
  8
LAYER_1
 10
-36.212890936455
 20
37.4762017288722
 30
0.0
  0
VERTEX
  5
9B8
  8
LAYER_1
 10
-35.76242442292845
 20
37.38136739352703
 30
0.0
  0
VERTEX
  5
9B9
  8
LAYER_1
 10
-35.32993591235508
 20
37.27652089306639
 30
0.0
  0
VERTEX
  5
9BA
  8
LAYER_1
 10
-34.92514140292387
 20
37.16385950661109
 30
0.0
  0
VERTEX
  5
9BB
  8
LAYER_1
 10
-34.55775689282378
 20
37.04558051328192
 30
0.0
  0
VERTEX
  5
9BC
  8
LAYER_1
 10
-34.23749838024378
 20
36.9238811921997
 30
0.0
  0
VERTEX
  5
9BD
  8
LAYER_1
 10
-33.45486909521983
 20
36.58725759717051
 30
0.0
  0
VERTEX
  5
9BE
  8
LAYER_1
 10
-32.69882273274813
 20
36.23925198500328
 30
0.0
  0
VERTEX
  5
9BF
  8
LAYER_1
 10
-31.92724700953945
 20
35.85687440594302
 30
0.0
  0
VERTEX
  5
9C0
  8
LAYER_1
 10
-31.09802964230461
 20
35.41713491023474
 30
0.0
  0
VERTEX
  5
9C1
  8
LAYER_1
 10
-30.16905834775439
 20
34.89704354812346
 30
0.0
  0
VERTEX
  5
9C2
  8
LAYER_1
 10
-29.09822084259959
 20
34.27361036985421
 30
0.0
  0
VERTEX
  5
9C3
  8
LAYER_1
 10
-27.84340484355099
 20
33.52384542567199
 30
0.0
  0
VERTEX
  5
9C4
  8
LAYER_1
 10
-26.36249806731939
 20
32.62475876582184
 30
0.0
  0
VERTEX
  5
9C5
  8
LAYER_1
 10
-24.80649550547057
 20
31.68230897311222
 30
0.0
  0
VERTEX
  5
9C6
  8
LAYER_1
 10
-23.43574998645333
 20
30.86902924752865
 30
0.0
  0
VERTEX
  5
9C7
  8
LAYER_1
 10
-22.21518691971299
 20
30.16596968805813
 30
0.0
  0
VERTEX
  5
9C8
  8
LAYER_1
 10
-21.10973171469486
 20
29.55418039368763
 30
0.0
  0
VERTEX
  5
9C9
  8
LAYER_1
 10
-20.08430978084426
 20
29.01471146340415
 30
0.0
  0
VERTEX
  5
9CA
  8
LAYER_1
 10
-19.10384652760651
 20
28.52861299619467
 30
0.0
  0
VERTEX
  5
9CB
  8
LAYER_1
 10
-18.13326736442693
 20
28.0769350910462
 30
0.0
  0
VERTEX
  5
9CC
  8
LAYER_1
 10
-17.13749770075083
 20
27.64072784694571
 30
0.0
  0
VERTEX
  5
9CD
  8
LAYER_1
 10
-15.78749764710665
 20
27.0653042363233
 30
0.0
  0
VERTEX
  5
9CE
  8
LAYER_1
 10
-15.48749763518572
 20
26.93648024813007
 30
0.0
  0
VERTEX
  5
9CF
  8
LAYER_1
 10
-13.16249754279852
 20
26.00362575422635
 30
0.0
  0
VERTEX
  5
9D0
  8
LAYER_1
 10
-12.59492008427429
 20
25.79899298717747
 30
0.0
  0
VERTEX
  5
9D1
  8
LAYER_1
 10
-11.60370876287245
 20
25.3588913321918
 30
0.0
  0
VERTEX
  5
9D2
  8
LAYER_1
 10
-10.87150503687061
 20
25.02800320680447
 30
0.0
  0
VERTEX
  5
9D3
  8
LAYER_1
 10
-10.19065161230359
 20
24.70845467151971
 30
0.0
  0
VERTEX
  5
9D4
  8
LAYER_1
 10
-9.563198627818295
 20
24.4013263120396
 30
0.0
  0
VERTEX
  5
9D5
  8
LAYER_1
 10
-8.991196222061621
 20
24.1076987140662
 30
0.0
  0
VERTEX
  5
9D6
  8
LAYER_1
 10
-8.47669453368047
 20
23.82865246330159
 30
0.0
  0
VERTEX
  5
9D7
  8
LAYER_1
 10
-8.02174370132174
 20
23.56526814544783
 30
0.0
  0
VERTEX
  5
9D8
  8
LAYER_1
 10
-7.628393863632329
 20
23.318626346207
 30
0.0
  0
VERTEX
  5
9D9
  8
LAYER_1
 10
-7.29869515925914
 20
23.08980765128116
 30
0.0
  0
VERTEX
  5
9DA
  8
LAYER_1
 10
-7.058719248571751
 20
22.90006740928295
 30
0.0
  0
VERTEX
  5
9DB
  8
LAYER_1
 10
-6.774644010921402
 20
22.65521646289042
 30
0.0
  0
VERTEX
  5
9DC
  8
LAYER_1
 10
-6.461927361657859
 20
22.37025423741119
 30
0.0
  0
VERTEX
  5
9DD
  8
LAYER_1
 10
-6.136027216130888
 20
22.0601801581529
 30
0.0
  0
VERTEX
  5
9DE
  8
LAYER_1
 10
-5.812401489690255
 20
21.73999365042318
 30
0.0
  0
VERTEX
  5
9DF
  8
LAYER_1
 10
-5.506508097685727
 20
21.42469413952968
 30
0.0
  0
VERTEX
  5
9E0
  8
LAYER_1
 10
-5.23380495546707
 20
21.12928105078003
 30
0.0
  0
SEQEND
  5
9ED
  8
LAYER_1
  0
ENDSEC
  0
EOF
